Me And Mark - Waiting tab

intro

-------------------------------------------                      -----------|
-------------------------------------------                      -----------|
------10--------10--------10----10---------                      -----10----|
---10---10---10---10---10-----10---10--(2x) second time end with ---10------|
-8---------10--------12-----13-------------                      -12-----13-|
-------------------------------------------                      -----------|

verses
-------------------------------------------|
-------------------------------------------|
-------------------------------------------|
-3----5----7---8---------------------------|  just listen to the rhythm
-3----5----7---8---------------------------|
-1----3----5---6---------------------------|

chorus

-------------------------------------------|
-------------------------------------------|
-------------------------------------------|
-3--10--8--10------------------------------|
-3--10--8--10------------------------------|
-1--8---6--8-------------------------------|


Solo's aren't really my thing, so i didn't make a tab of the solo
Tap to rate this tab
 
# A B C D E F G H I J K L M N O P Q R S T U V W X Y Z