Me And Mark - Waiting tab

Intro:

E|---------------------------------------------------||x2
B|---------------------------------------------------||
G|------10-------------------------------------------||
D|---10----10--------10------------12------12----12--||
A|-8--------------10----10------12------------12-----||
e|--------------8------------10-------10-------------||

verses:

"I was waiting...."(I'll put the chords down,you figure out how to play it)

E|-------------------------------||
B|-------------------------------||
G|--------5-5-5---7-7------------||
D|3-3-3---5-5-5---7-7---8--88----||
A|3-3-3---3-3-3---5-5---8--88----||
e|1-1-1-----------------6--66----||


And before the chorus:

E|-------------------------xxxxxx---------||
B|-------------------------xxxxxx---------||
G|--------5-5-5---7-7777777xxxxxx---------||
D|3-3-3---5-5-5---7-7777777xxxxxx---------||
A|3-3-3---3-3-3---5-5555555xxxxxx---------||
e|1-1-1--------------------xxxxxx---------||


chorus:(the same as the verse,I think)

E|--------------------------------------------------------------||
B|--------------------------------------------------------------||
G|---------------5-5-5-5-5-5-5---7-7-7-7-7-7-7------------------||
D|3-3-3-3-3-3-3--5-5-5-5-5-5-5---7-7-7-7-7-7-7---8-8-8-8-8-8-8--||
A|3-3-3-3-3-3-3--3-3-3-3-3-3-3---5-5-5-5-5-5-5---8-8-8-8-8-8-8--||
e|1-1-1-1-1-1-1----------------------------------6-6-6-6-6-6-6--||

And thats sounds kinda right to me!!!:D
Tap to rate this tab
 
# A B C D E F G H I J K L M N O P Q R S T U V W X Y Z