Me And Mark - Waiting tab

Intro

e|------------------------------------------|
B|------------------------------------------|
G|------------------------------------------|
D|-----3---------5---------7--8-------------|
A|---3---3-----5---5-----7------------------|
E|-1---------3---------5--------------------|




 Verse
 
e|------------------------------------------------|
B|------------------------------------------------|
G|------------------------------------------------|
D|-3-3-3-33--5-5-5-55--7-7-7--77--8-8-8-8-8-------|
A|-3-3-3-33--5-5-5-55--7-7-7--77--8-8-8-8-8-------|
E|-1-1-1-11--3-3-3-33--5-5-5--55--6-6-6-6-6-------|


Chorus
These are the chords, figure out the strumming pattern. Not too difficult. 
e|-------------------------------------------------|
B|-------------------------------------------------|
G|------5----3---------3---------------------------|
D|-3----5----3----3----3---------------------------|
A|-3----3----1----3----5---------------------------|
E|-1--------------1--------------------------------|


-Kiel


Tap to rate this tab
 
# A B C D E F G H I J K L M N O P Q R S T U V W X Y Z