Song name
# A B C D E F G H I J K L M N O P Q R S T U V W X Y Z

Me First And The Gimme Gimmes - Dannys Song tab

Danny's Song
Me First and the Gimme Gimmes

Tabbist: Stan the naughty Norwegian

First tab for me, didn't really do that much but read the chords that were posted and 
them into
good ol' fashioned power chords. As they should be.

Intro

E---------------------------|
B---------------------------|
G-----7------7------7-------|
D-----7------7------7-------|  etc.
A-5-5-5--5-5-5--5-5-5-------|
e---------------------------|


Verse (x2)

E-------------------------------------------------|
B-------------------------------------------------|
G--7-7-7777777----7s5-555--4-4-44444--4-x-4-------|    (Not the correct amount of palm mutes
D--7-7-7777777----7s5-555--4-4-44444--4-x-4-------|     but you get the idea, listen to the song)
A--5-5-5555555----5s3-333--2-2-22222--2-x-2-------|
e-------------------------------------------------|
       P.m....             P.m..

E----------------------------------------------------|
B----------------------------------------------------|
G----------------------2-2-22222--2-x-2--------------|
D--2-2-222222-2-x-2----2-2-22222--2-x-2--------------|
A--2-2-222222-2-x-2----0-0-00000--0-x-0--------------|
e--0-0-000000-0-x-0----------------------------------|
       P.M...          p.m...

Chorus

E---------------------------------------------------------|
B---------------------------------------------------------|
G-------------------77s55-4444----------------77s55-4444--|
D-X\----5555--7777--77s55-4444----5555--7777--77s55-4444--|
A-X\----5555--7777--55s33-2222----5555--7777--55s33-2222--|
e-X\----3333--5555----------------3333--5555--------------|
  ^
  Pick slide here if you think you got the skillz!
  (Keep your hand fretted on G (3/5) power chord
    so you're ready to hop into the chorus)

                                         First time   Other times
E--------------------------------------|------------|-------|
B--------------------------------------|------------|-------|
G--------------77s6-6-4--44444444------|2-----------|-2222--|
D--5555--7777--77s6-6-4--44444444-2222-|2-let ring--|-2222--|
A--5555--7777--55s4-4-2--22222222-2222-|0-----------|-0000--|
e--3333--5555---------------------0000-|------------|-------|

Outro

E-------------------------------------------------|
B-------------------------------------------------|
G-22222222----------------------------------------|
D-22222222----------------------------------------|
A-00000000----------------------------------------|
e-------------------------------------------------|
Tap to rate this tab
 
# A B C D E F G H I J K L M N O P Q R S T U V W X Y Z