Song name
# A B C D E F G H I J K L M N O P Q R S T U V W X Y Z

Me First And The Gimme Gimmes - Walking On Sunshine tab

Intro Clean and distortion:
|----------------------------|
|----------------------------|
|------33---55---33----------|
|-33---33---55---33----------|
|-33---11---33---11----------|
|-11-------------------------|

1st Verse: Clean
|---------------------------|
|-----10---12---10----------|
|-10--10---12---10----------|
|-10---8---10----8----------|
|--8------------------------|
|---------------------------|

Chorus: distortion "now i'm walking on sunshine"
|--------------------------|
|--------------------------|
|---5555----3333-----------|
|---5555----3333-----------|
|---3333----1111-----------|
|--------------------------|

"it's time to feel good"
|--------------------------|
|--------------------------|
|------33---55---33--------|
|-33---33---55---33--------|
|-33---11---33---11--------|
|-11-----------------------|

2nd Verse: distortion
|-------------------------|
|-------------------------|
|-----3---5---3-----------|
|-3---3---5---3-----------|
|-3---1---3---1-----------|
|-1-----------------------|
p.m..........................

Bridge:
|-------------------------|
|-------------------------|
|-----3---5---3-----------|
|-3---3---5---3-----------|
|-3---1---3---1-----------|
|-1-----------------------|
Tap to rate this tab
# A B C D E F G H I J K L M N O P Q R S T U V W X Y Z