Song name
# A B C D E F G H I J K L M N O P Q R S T U V W X Y Z

Me First And The Gimme Gimmes - Goodbye Earl tab

Help us improve GuitareTab! Take a short survey!
Goodbye Earl

Intro - palm muted
$= many times
e-----|
b-----|
g---$-|
d--7--|
a--7--|
E--5--|


verse - 3 palm
      - 1 clean

*=8 times  &=4 times
e-------------|
b-------*----*|
g---*-7---*-9-|
d--7--7--7--9-|
a--7--5--7--7-|
E--5-----5----|

e----------------|
b------*---------|
g---*-7---&-----*|
d--7--7--7---&-7-|
a--7--5--7--7--7-|
E--5-----5--4--5-|


Pre chorus x 2 second time without last note played once.
e-------------|
b------&------|
g---&-9---&--&|
d--7--9--7--7-|
a--7--7--7--7-|
E--5-----5--5-|

Chorus x2
e----------------|
b------&-----*--*|
g---*-7---&-9--7-|
d--7--7--7--9--7-|
a--7--5--7--7--5-|
E--5-----5-------|

Intro  - clean

Verse  - x2 palm
       - x2 clean

Pre chorus 2- I cant work out what hes playing here
             at the end he plays the intro chord to
	      to build up into the chorus.

Chorus - x4

End on

e-----|
b-----|
g-----|
d--7--|
a--7--|
E--5--|


Pigeon!
Related for Goodbye Earl tab