Guitaretab - guitar tabs
Song name
# A B C D E F G H I J K L M N O P Q R S T U V W X Y Z

Me First And The Gimme Gimmes - Fire And Rain tab

-----------------------------------------------------------------
Fire and Rain - Me First And The Gimme Gimmes
-----------------------------------------------------------------
Tabbed by: Bair
Email: bair_morritt@hotmail.com

Tuning: Standard

Intro:
e|------------------------------------------|
B|------------------------------------------|
G|------------------------------------------|
D|--555555555555555555555-------------------|
A|--555555555555555555555-------------------|
E|--333333333333333333333-------------------|

Verse:
e|-----------------------------------------------------|
B|-----------------------------------------------------|
G|--------7777--5555--------------7777--55555555-------|
D|--5555--7777--5555--5555--5555--7777--55555555-(X2)--|
A|--5555--5555--3333--5555--5555--5555--33333333-------|
E|--3333--------------3333--3333-----------------------|
"Yesterday morning, they let me know you were gone...."
[ Tab from: http://www.guitaretab.com/m/me-first-and-the-gimme-gimmes/163646.html ]
Chorus:
e|------------------------------------------|
B|------------------------------------------|
G|--9--7--5--7------------------------------|
D|--9--7--5--7--5-55555555--(X3)------------|
A|--7--5--3--5--5-55555555------------------|
E|--------------3-33333333------------------|
ďOh, Iíve seen fire and I've seen rain...."

e|------------------------------------------|
B|------------------------------------------|
G|--55555555--------------------------------|
D|--55555555--5555555555555555--------------|
A|--33333333--5555555555555555--------------|
E|------------3333333333333333--------------|
"But I always thought I'd see you again."

-Then Verse
-Then Chorus

Outro:
e|------------------------------------------|
B|------------------------------------------|
G|------------------------------------------|
D|--5555555555555-5-------------------------|
A|--5555555555555-5-------------------------|
E|--3333333333333-3-------------------------|

YAH! YAH!
Related for Fire And Rain tab