Song name
# A B C D E F G H I J K L M N O P Q R S T U V W X Y Z

Me First And The Gimme Gimmes - Wild World tab

Hello all, this is my attempt at tabbing for Wild World by Me First and the Gimme 
This is a relatively easy song to play... Standard Tuning...
EADGBe
I am not going to put the strum patter/ amount of hits per measure, just the notes...

Intro: Play once (this is also the bridge just a different rhythm)
|--------------------------|
|--------------------------|
|-9-14-13-11-13-9-6-8-5-6--|
|-x-x--x---x--x-x-x-x-x-x--|
|-7-12-11--9-11-7-4-6-3-4--|
|--------------------------|

Verse (after the bass intro thing)
|------------------------|
|------------------------|
|-6-----4-----2----------|
|-6--4--4--2--2--4--6--9-|
|-4--4--2--2--0--4--6--9-|
|----2-----0-----2--4--7-|

pre-chorus

|--------|
|--------|
|--------|
|-7-6-4--|
|--------|
|--------|

Chorus

|-----------------------------|
|----------5-4----------------|
|--------------6-4------------|
|-2--9--7----------7-6-4------|
|-2--9--7----------------7----|
|-0--7--5---------------------|
                 First Ending (below)    Second Ending (also below)
|---------|     |-------------|          |--------|
|---------|     |-------------|          |--------|
|---------|     |-------------|          |--------|
|-9--7--2-|     |-----2-2-----|          |-4--6---|
|-9--7--2-|     |-2-4-----4---|          |-4--6---|
|-7--5--0-|     |-------------|          |-2--4---|

Repeat top then bottom

Repeat Verse, Pre-chorus, and chorus

Bridge

|----------------------------|
|----------------------------|
|-9-14-13-11-13-9-6-8-17-18/-|
|-x-x--x---x--x-x-x-x-x--x-/-|
|-7-12-11--9-11-7-4-6-15-16/-|
|----------------------------|

Then repeat the verse, prechorus, chorus, again and end on

---
---
---
-6-
-6-
-4-
Tap to rate this tab
# A B C D E F G H I J K L M N O P Q R S T U V W X Y Z