Song name
# A B C D E F G H I J K L M N O P Q R S T U V W X Y Z

Me First And The Gimme Gimmes - Uptown Girl tab

Standard tuning, this should hopefully be the right way to play it.

Intro/verse/chorus
|---------------|---------------------|
|---------------|---------------------|
|---------------|---------------------|
|---------------|-222--444--666--7-9--|    X 4
|---------------|-222--444--666--7-9--|
|--(pickslide)--|-000--222--444--5-7--|

"And when she knows what"       "She'll see I'm not so tough"

|------------------------|      |-------------------------|
|------------------------|      |-------------------------|
|----555-------777-------|  X 2 |-----555-----------------|    (pre-chorus)
|----555--777--777--555--|      |-----555--555--777--999--|
|----333--777--555--555--|      |-----333--555--777--999--|
|---------555-------333--|      |----------333--555--777--|

"uptown girl" 
|---------------------|
|---------------------|
|---------------------|
|-222--444--666--7-9--|    X 2    (chorus)
|-222--444--666--7-9--|
|-000--222--444--5-7--|

"ooooooooooohOOOOOOOH"  (bridge)

|---------------------|
|---------------------|
|---------------------|
|-555--777--888--9-7--|    X 2
|-555--777--888--9-7--|
|-333--555--666--7-5--|


then...

Verse

Pre Chorus

Chorus

Bridge

Chorus


and thats it, if you have any problems email me at nath_robo@hotmail.com
Tap to rate this tab
# A B C D E F G H I J K L M N O P Q R S T U V W X Y Z