Song name
# A B C D E F G H I J K L M N O P Q R S T U V W X Y Z

Me First And The Gimme Gimmes - Me And Julio Down By The School Yard tab

ME AND JULIO DOWN BY THE SCHOOL YARD - Me First And The Gimme Gimmes


By Justin 

e----------7-------9------------------------
B----------7-------9------------------------
G---6------7-------9------------------------
D---7------7-------9------------------------
A---7------5-------7------------------------
E---5---------------------------------------
those are the main chords throughout the song , 
listen to the song for where each is played

Second Guitar riff in beginning:
e--------------------------------------------------------------------------
B--------------------------------------------------------------------------
G--------------------------------------------------------------------------
D----------6--7--------6-7-------6-7-9-11------6-7-------------------------
A------7------------7----------7----------------7--------------------------
E--------------------------------------------------------------------------

Heres the chorus
e-------------------------------------------------
B-------------------------------------------------
G-------------------------------------------------
D---7-------7-----------9--7-------------7---9----
A---5---7---5---7---9---7--5---7--7--5---5---7----
E-------5-------5---7----------5--5--3------------
figure out the strumming yourself

"yeah yeah yeah yeah" part
e------------------------------------------
B------------------------------------------
G------------------------------------------
D--------9---7-----------------------------
A---7----7---5-----------------------------
E---5--------------------------------------

there you have it.Later - Jusin
Tap to rate this tab
# A B C D E F G H I J K L M N O P Q R S T U V W X Y Z