Song name
# A B C D E F G H I J K L M N O P Q R S T U V W X Y Z

Me First And The Gimme Gimmes - Some Where Over The Rainbow tab

Any Problems Email me at: Bread@punkhardcore.net
In the intro, play bass first:

Eii, C, D,
(C minor)
e|-----------------3---------------------------|
b|------------------4--------------------------|
g|-----4---5----------6-------9-------7--------|
d|-5---4---5---5-----5----5---9---7---7---5----|
a|-5---2---3---5----------5---7---7---5---5----|
E|-3-----------3----------3-------5-------3----|
Somewhere over the rainbow......

e|---------------------------------------------|
b|---------------------------------------------|
g|-----5-------7----------9-------7------------|
d|-5---5---5---7------5---9---7---7------------|
a|-5---3---5---5------5---7---7---5------------|
E|-3-------3----------3-------5----------------|

(Repeat Chorus)

(solo)
e|---------------------------------------------|
b|---------------------------------------------|
g|-----5-------7-------------------------------|
d|-5---5---5---7-------------------------------|
a|-5---3---5---5-------------------------------|
E|-3-------3-----------------------------------|

e|---------------------------------------------|
b|---------------------------------------------|
g|---------------------------------------------|
d|-5------7------10--9--7--9----------------5--|
a|-5------7------10--9--7--9----------------5--|
E|-3------5------8---7--5--7----------------3--|
If that little blue birds......why can't I???
Tap to rate this tab
# A B C D E F G H I J K L M N O P Q R S T U V W X Y Z