Song name
# A B C D E F G H I J K L M N O P Q R S T U V W X Y Z

Me First And The Gimme Gimmes - Leaving On The Jet Plane tab

                 (LEAVING ON THE JET PLANE)     
                  ME FIRST AND THE GIMME GIMMES
                  made by -kenken-

INTRO(drums)
ksby 2 ng intro

e|----3333333---------------3333333---------------3333333---------------
B|---------------3333333---------------3333333--------------5555555-----
G|----------------------------------------------------------7777777-----
D|----------------------------------------------------------7777777-----
A|----------------------------------------------------------------------
E|----------------------------------------------------------------------

verses
e|----3333333---------------3333333---------------|
B|----5555555----3333333----5555555----3333333----|
G|----5555555----5555555----5555555----5555555----|
D|---------------5555555---------------5555555----|
A|------------------------------------------------|
E|------------------------------------------------|

e|----3333333--------------------------------------
B|----5555555----3333333----55555555555------------
G|----5555555----5555555----77777777777------------
D|---------------5555555----77777777777------------
A|-------------------------------------------------
E|-------------------------------------------------
            (2x)

     so kiss me...
e|----3333333---------------3333333----------------
B|----5555555----3333333----5555555----3333333-----
G|----5555555----5555555----5555555----5555555-----
D|---------------5555555---------------5555555-----
A|-------------------------------------------------
E|-------------------------------------------------

e|----3333333---------------------------------------------|
B|----5555555----3333333----555555555555-5--3--2--3-------|
G|----5555555----5555555----777777777777-7--5--4--5-------|
D|---------------5555555----777777777777-7--5--4--5-------|
A|--------------------------------------------------------|
E|--------------------------------------------------------|
   cause i'm leaving...
e|----3333333---------------3333333----------------|
B|----5555555----3333333----5555555----3333333-----|
G|----5555555----5555555----5555555----5555555-----|
D|---------------5555555---------------5555555-----|
A|-------------------------------------------------|
E|-------------------------------------------------|

e|----3333333--------------------------------------|
B|----5555555----3333333----5555555555-------------|
G|----5555555----5555555----7777777777-------------|
D|---------------5555555----7777777777-------------|
A|-------------------------------------------------|
E|-------------------------------------------------|
guitar 2(destortion)
e|-------------------------------------------------|
B|-------------------------------------7---5~------|
G|--------------------------7---5--4---------------|
D|-------------------------------------------------|
A|-------------------------------------------------|
E|-------------------------------------------------|
pki rte n lng po plss...
snd n lng po kau commnt(kenken_243@yahoo.com)ENJOY!!!!

Tap to rate this tab
# A B C D E F G H I J K L M N O P Q R S T U V W X Y Z