Song name
# A B C D E F G H I J K L M N O P Q R S T U V W X Y Z

Me Vs Hero - Starraiders And Spaceinvaders tab

Artist - Me Vs Hero  (tab posted by Me Vs Hero)

Song - StarRaiders and SpaceInvaders

Url - http://www.myspace.com/mevshero

Tabs: Guitar 1

Key:

\,/ = Slides
 h  = Hammer-on
 p  = Pull-off
 b  = Bends
 v  = Vibrato
 r  = Releases
 pi = Pinch Harmonic




e|------------------------------------------------------------------------|
B|------------------------------------------------------------------------|
G|------------------------------------------------------------------------|
D|-------------------------------------------------------12---------------|
A|---------5---0----------7---7h9----------5---0------10--------10-9------|
E|-0-0-0-0---0----0-0-0-0---0------0-0-0-0---0----0-0-------0-0-----------|

e|------------------------------------------------------------------------|
B|------------------------------------------------------------------------|
G|------------------------------------------------------------------------|
D|------------------------------------------------------------------------|
A|---------5---0----------7---7h9------10p9------5h7------7p0------5pi----|
E|-0-0-0-0---0----0-0-0-0---0------0-0-------0-0------0-0------0-0--------|





e|------------------------------------------------------------------------|
B|------------------------------------------------------------------------|
G|------------------------------------------------------------------------|
D|--------------------------------------------4-2--2-0--------------------|
A|--------5---------------------------5-------4-2--2-0--------------------|
E|-0--000----000-2--000-4--4-5--0-000----000--4-2--2-0--------------------|

     dont think it was never...

e|------------------------------------------------------------------------|
B|------------------------------------------------------------------------|
G|-2-22-222-4444777-------------------------------------------------------|
D|-2-22-222-44447775-55-555-555-555---------------------------------------|
A|-0-00-000-22225555-55-555-555-555---------------------------------------|
E|-----------------5-55-555-555-555---------------------------------------|

   all we ever do is...

e|------------------------------------------------------------------------|
B|------------------------------------------------------------------------|
G|------------------------------------------------------------------------|
D|---------------------------------------000---000------------------------|
A|--------5---------------------------5--000---000------------------------|
E|-0--000----000-2--000-4--4-5--0-000----000---000------------------------|

   we joined forces...

e|------------------------------------------------------------------------|
B|------------------------------------------------------------------------|
G|-2-22-222-4444777-------------------------------------------------------|
D|-2-22-222-44447775-55-555-555-555---------------------------------------|
A|-0-00-000-22225555-55-555-555-555---------------------------------------|
E|-----------------5-55-555-555-555---------------------------------------|

  the same song alike...




e|---------------------------------------------------------------------------|
B|---------------------------------------------------------------------------|
G|---------------------------------------------------------------------------|
D|-9--77-777-777--12121212--55-555-555-555--9-77-777-777-777--4/5--5--5--5--5|
A|-9--77-777-777--12121212--55-555-555-555--9-77-777-777-777--4/5--5--5--5--5|
E|-9--77-777-777--12121212--55-555-555-555--9-77-777-777-777--4/5--5--5--5--5|

   our tears will tell...




e|---------------------------------------------------------------------------|
B|---------------------------------------------------------------------------|
G|---------------------------------------------------------------------------|
D|-9-99-9995-55-5557-77-7770-000--------9-99-9995-55-5550-00--0--0--0--0--000|
A|-9-99-9995-55-5557-77-7770-000--------9-99-9995-55-5550-00--0--0--0--0--000|
E|-9-99-9995-55-5557-77-7770-000-2b-p0--9-99-9995-55-5550-00--0--0--0--0--000|

e|----------------------------------------------------------------------------------------|
B|----------------------------------------------------------------------------------------|
G|----------------------------------------------------------------------------------------|
D|-9-99-9995-55-5557-77-7770-000--------9-99-9995-55-5550-00--0--0--0--0---00--00--0--0--0|
A|-9-99-9995-55-5557-77-7770-000--------9-99-9995-55-5550-00--0--0--0--0---00--00--0--0--0|
E|-9-99-9995-55-5557-77-7770-000-2b-p0--9-99-9995-55-5550-00--0--0--0--0---00--00--0--0--0|

   this will be...




e|------------------------------------------------------------------------|
B|------------------------------------------------------------------------|
G|------------------------------------------------------------------------|
D|-------------------------------------------------------12---------------|
A|---------5---0----------7---7h9----------5---0------10--------10-9------|
E|-0-0-0-0---0----0-0-0-0---0------0-0-0-0---0----0-0-------0-0-----------|

e|------------------------------------------------------------------------|
B|------------------------------------------------------------------------|
G|------------------------------------------------------------------------|
D|------------------------------------------------------------------------|
A|---------5---0----------7---7h9------10p9------5h7------7p0------5pi----|
E|-0-0-0-0---0----0-0-0-0---0------0-0-------0-0------0-0------0-0--------|





e|------------------------------------------------------------------------|
B|------------------------------------------------------------------------|
G|------------------------------------------------------------------------|
D|------------------------------------------------------------------------|
A|-------------------------5h7----7h9----10pi-----------------------------|
E|-00-xxxxxxxxxxxxx-00--0-0----0-0----0-0---------------------------------|

   sweet 16 held a brighter outlook...

e|------------------------------------------------------------------------|
B|------------------------------------------------------------------------|
G|-2-22-222-4444777-------------------------------------------------------|
D|-2-22-222-44447775-55-555-555-555---------------------------------------|
A|-0-00-000-22225555-55-555-555-555---------------------------------------|
E|-----------------5-55-555-555-555---------------------------------------|

   we grew apart...

e|------------------------------------------------------------------------|
B|------------------------------------------------------------------------|
G|------------------------------------------------------------------------|
D|-000--------000----------000--------00--0-------------------------------|
A|-000-5pi----000-5h7------000-5pi----00--0-------------------------------|
E|-000--------000----------000--------00--0-------------------------------|

   but now we're older...

e|------------------------------------------------------------------------|
B|------------------------------------------------------------------------|
G|-2-22-222-4444777-------------------------------------------------------|
D|-2-22-222-44447775-55-555-555-555---------------------------------------|
A|-0-00-000-22225555-55-555-555-555---------------------------------------|
E|-----------------5-55-555-555-555---------------------------------------|





e|--------------------------------------------------------------------------|
B|--------------------------------------------------------------------------|
G|--------------------------------------------------------------------------|
D|-9--77-777-777--12121212--55-555-555-555--9-77-777-777-777---4-5-5-5-5-5-5|
A|-9--77-777-777--12121212--55-555-555-555--9-77-777-777-777---4-5-5-5-5-5-5|
E|-9--77-777-777--12121212--55-555-555-555--9-77-777-777-777---4-5-5-5-5-5-5|

   our tears will tell...




e|---------------------------------------------------------------------------|
B|---------------------------------------------------------------------------|
G|---------------------------------------------------------------------------|
D|-9-99-9995-55-5557-77-7770-000--------9-99-9995-55-5550-00--0--0--0--0--000|
A|-9-99-9995-55-5557-77-7770-000--------9-99-9995-55-5550-00--0--0--0--0--000|
E|-9-99-9995-55-5557-77-7770-000-2b-p0--9-99-9995-55-5550-00--0--0--0--0--000|

e|----------------------------------------------------------------------------------------|
B|----------------------------------------------------------------------------------------|
G|----------------------------------------------------------------------------------------|
D|-9-99-9995-55-5557-77-7770-000--------9-99-9995-55-5550-00--0--0--0--0---00--00--0--0--0|
A|-9-99-9995-55-5557-77-7770-000--------9-99-9995-55-5550-00--0--0--0--0---00--00--0--0--0|
E|-9-99-9995-55-5557-77-7770-000-2b-p0--9-99-9995-55-5550-00--0--0--0--0---00--00--0--0--0|

   this will be...



e|------------------------------------------------------------------------------------|
B|------------------------------------------------------------------------------------|
G|------------------------------------------------------------------------------------|
D|-0000000-0--00-----7-5--5---------10-9--9-7-5-----------5-77777777777777777777777777|
A|-0000000-0--00-----7-5--5---------10-9--9-7-5-----------5-77777777777777777777777777|
E|-0000000-0--00-----7-5--5---------10-9--9-7-5-----------5-77777777777777777777777777|

   we'll take this to our graves...

e|----------------------------------------------------|
B|----------------------------------------------------|
G|----------------------------------------------------|
D|-0-0-2p0-2p0--00-0-2p0-5p0h4--0-0-2p0-2p0-0---------|
A|----------------------------------------------------|
E|------------------------------------------5-55-7-77-|

   those things, will never happen...


e|-------------------------------------------------------|
B|-------------------------------------------------------|
G|-------------------------------------------------------|
D|-0-0-2p0-2p0--00-0-2p0-2p0h4--0-0-2p0-2p0-5p4/2h4p2p0-0|
A|-------------------------------------------------------|
E|-------------------------------------------------------|



e|-----------------------------------------------------------------------------------------|
B|-----------------------------------------------------------------------------------------|
G|-7-99-10-1111111111-111111-7-44-2-22222-222-77--9-9-99-999-------------------------------|
D|-x-xx-x--x-x-x-x-x--x-x-x--x-xx-x-xxxxx-xxx-xx--x-x-xx-xxx-------------------------------|
A|-5-77-9--9-9-9-9-9--9-9-9--5-22-0-00000-000-55--7-7-77-777------5-------7--------9-------|
E|------------------------------------------------------------5-7---7-7-9---9-9-11---11-12-|

  we've been falling...



e|-------------|
B|-------------|
G|-------------|
D|-00----------|
A|-00----------|
E|-00--2/14\2--|

e|------------------------------------------------------|
B|------------------------------------------------------|
G|------------------------------------------------------|
D|-0000-----0000------0000--0000--0000------11-11-11/12-|
A|-0000-----0000------0000--0000--0000------x--x--x--x--|
E|-0000-----0000------0000--0000--0000------9--9--9/10--|


e|------------------------------------------------------|
B|------------------------------------------------------|
G|------------------------------------------------------|
D|-0000-----0000------0000--0000--0000------------------|
A|-0000-----0000------0000--0000--0000------9-----7---9-|
E|-0000-----0000------0000--0000--0000----0---0-0---0---|




e|-----------------------------------------------------------------------------|
B|-----------------------------------------------------------------------------|
G|-----------------------------------------------------------------------------|
D|--------------------------7---5---4---5-----------------------4p2------7/9---|
A|-----5---7---9---10---9-------------------0-0-4-0-5-0-7-0--2-2---------------|
E|-0-0---0---0---9----9---5---5---5---5------------------------------5-5-------|


e|---------------------------------------------------------------------|
B|---------------------------------------------------------------------|
G|---------------------------------------------------------------------|
D|--------------------------7---5---4---5-------------------4----------|
A|-----5---7---9---10---9-------------------0-0-4-0-5-0-7---2----------|
E|-0-0---0---0---9----9---5---5---5---5--------------------------------|


e|-----------------------------------------|
B|-----------------------------------------|
G|-----------------------------------------|
D|-33--------33----------------------------|
A|-22--------22--------7-5-0-7-9/7-5-5pi---|
E|-11--------11----------------------------|
Tap to rate this tab
# A B C D E F G H I J K L M N O P Q R S T U V W X Y Z