Song name
# A B C D E F G H I J K L M N O P Q R S T U V W X Y Z

Me Vs Hero - Can You Count Suckers tab

Artist - Me Vs Hero  (tab posted by Me Vs Hero)

Song - Can You Count, Suckers

Tabs - Lead Guitar and Rhythm Guitar

Album - Days That Shape Our Lives

Url - http://www.myspace.com/mevshero

Tabs: Lead Guitar

Key: drop d


\,/ = Slides
 h  = Hammer-on
 p  = Pull-off
 b  = Bends
 v  = Vibrato
 r  = Releases
 pi = Pinch Harmonic
 pm = Palm Mute




e|------------------------------------------------------------------------|
B|------------------------------------------------------------------------|
G|------------------------------------------------------------------------|
D|------------------------------------------------------------------------|  
A|------------------------------------------------------------------------|
D|------------------------------------------------------------------------|





Intro Riff:

e|------------------------------------------------------------------------|
B|------------------------------------------------------------------------|
G|---------4-----1-------------4------------------------------------------|
D|-4-2-------4-2---2-4--4-2------4/6-6-6-6--------------------------------|  
A|-----2--------------------2--------7-7-7--------------------------------|
D|------------------------------------------------------------------------|x2




Pre Verse Riff:

e|------------------------------------------------------------------------|
B|------------------------------------------------------------------------|
G|--------4---------1--------------4--------------------------------------|
D|-4-2------4-2-4-2----2-4--4-2------4-2-4/6\4--2-2-2---------------------|  
A|-----2------------------------2---------------4-4-4---------------------|
D|------------------------------------------------------------------------|

e|------------------------------------------------------------------------|
B|------------------------------------------------------------------------|
G|--------4---------1--------------4--------------------------------------|
D|-4-2------4-2-4-2----2-4--4-2------4-2-4/6\4--4-2-2---------------------|  
A|-----2------------------------2-----------------------------------------|
D|------------------------------------------------------------------------|





Verse 1:

e|------------------------------------------------------------------------|
B|------------------------------------------------------------------------|
G|------------------------------------------------------------------------|
D|------------------------------------------------------------------------|  
A|------------------------------------------------------------------------|
D|------------------------------------------------------------------------|

Call Me cynical ....



e|--------------------------------------------------------------------------------|
B|--------------------------------------------------------------------------------|
G|--------4--------------------4-------1h2p1-------1h2p1-1------------1h2p1-1-4-4-|
D|-4p2------4p2---4/6\4--4p2-----4p2---------4p2-----------4p2---4p2----------2-2-|  
A|-----2--------2------------2-------2-----------0-------------0-----0------------|
D|--------------------------------------------------------------------------------|

listen theres a 1000 ....





Bridge 1:

e|------------------------------------------------------------------------|
B|------------------------------------------------------------------------|
G|-11----13-13-----9------9-9---------------------------------------------|
D|------------------------------------------------------------------------|  
A|-9-----11-11-----7------7-7---------------------------------------------|
D|------------------------------------------------------------------------|

tracks to keep them ....





Chorus:
                                                            <--pm-->
e|------------------------------------------------------------------------|
B|-9-9-9-10p9-9--12--12-12--12-12--9-9-9-10p9-9--11--11-11--11-11-11------|
G|-9-9-9--9----9--9---9--9---9--9--9-9-9-9----9--9---9--9---9--9--9-------|
D|------------------------------------------------------------------------|  
A|------------------------------------------------------------------------|
D|------------------------------------------------------------------------|

yeah so ....

                                   <-------------------pm----------------> 
e|-------------------------------------------------------------------------|
B|-9-9-9-10p9-9--12--12-12--12-12------------------------------------------|
G|-9-9-9--9----9--9---9--9---9--9--9-9-9-9-9-9-9-9-11-11-11-11-11-11-11-11-|
D|---------------------------------9-9-9-9-9-9-9-9-9--9--9--9--9--9--9--9--|  
A|-------------------------------------------------------------------------|
D|-------------------------------------------------------------------------|x2





Repeat 'Pre Verse Riff'





Verse 2:

e|------------------------------------------------------------------------|
B|------------------------------------------------------------------------|
G|------------------------------------------------------------------------|
D|------------------------------------------------------------------------|  
A|------------------------------------------------------------------------|
D|------------------------------------------------------------------------|

yeah we're getting to the part ....




e|---------------------------------------------------------------------------------------|
B|---------------------------------------------------------------------------------------|
G|----------------------------------4----------------------------------------------------|
D|-4--4-4p2---4--4-4/6\4--4-4-4p2-----4-4/6\4--4--4-4p2----4--4-4/6\4--4-4-4p2---6h7p6\4-|  
A|----------2---------------------2---------------------0----------------------0---------|
D|---------------------------------------------------------------------------------------|

listen theres a 1000 ways ....





Bridge 2:

e|------------------------------------------------------------------------|
B|------------------------------------------------------------------------|
G|-16\13-13-13-13-13-11-11-11-11-11-9-9-9---------------------------------|
D|------------------------------------------------------------------------|  
A|-14\11-11-11-11-11-9--9--9--9--9--7-7-7---------------------------------|
D|------------------------------------------------------------------------|

this part of town is ours ....





Middle 8:

e|------------------------------------------------------------------------|
B|------------------------------------------------------------------------|
G|------------------------------------------------------------------------|
D|-4-2---4-4-2---4-2---4-2---4-4-2---4-2----------------------------------|  
A|-----2-------2-----2-----2-------------2-2------------------------------|
D|------------------------------------------------------------------------|


e|-------------------------------------------------------------------------------|
B|-------------------------------------------------------------------------------|
G|-------------1h2p1-------------------4-------------1h2p1-----------------------|
D|-4-4--4-2----------4--4-4--4-2---2-4---4-4--4-2----------4--4-4--4-2--pi9--9-9-|  
A|----------2--------------------2----------------2------------------------------|
D|-------------------------------------------------------------------------------|x3





Repeat 'Chorus'




Repeat 'Pre Verse Riff'








Artist - Me Vs Hero  (tab posted by Me Vs Hero)

Song - Can You Count, Suckers

Album - Days That Shape Our Lives

Url - http://www.myspace.com/mevshero

Tabs: Rhythm Guitar

Key: drop d


\,/ = Slides
 h  = Hammer-on
 p  = Pull-off
 b  = Bends
 v  = Vibrato
 r  = Releases
 pi = Pinch Harmonic
 pm = Palm Mute





Pre Verse Intro:

                                      < pm >
e|------------------------------------------------------------------------------|
B|------------------------------------------------------------------------------|
G|-4-----6-6-6-2-2-4-4-4-----4-4-2-2-2-4-4-4------------------------------------|
D|-4-2-2-6-6-6-2-2-4-4-4-2-2-4-4-2-2-2-4-4-4------------------------------------|  
A|-2-2-2-4-4-4-0-0-2-2-2-2-2-2-2-0-0-0-2-2-2------------------------------------|
D|---2-2-----------------2-2----------------------------------------------------|


e|------------------------------------------------------------------------------|
B|------------------------------------------------------------------------------|
G|-4-----6-6-6-2-2-4-4-4-----4-4-------2-2-2------------------------------------|
D|-4-2-2-6-6-6-2-2-4-4-4-2-2-4-4-4-4-4-2-2-2------------------------------------|  
A|-2-2-2-4-4-4-0-0-2-2-2-2-2-2-2-4-4-4-0-0-0------------------------------------|
D|---2-2-----------------2-2-----4-4-4------------------------------------------|




Verse:

e|-----------------------------------------------------------------------------------|
B|-----------------------------------------------------------------------------------|
G|---------------------------44444--44444--22222--2-2--22222---0-0--0-0--6-6-6-4-4-4-|
D|-2-2--2--2-2-2-2---2-2--2--44444--44444--22222--2-2--22222---0-0--0-0--6-6-6-4-4-4-|  
A|-2-2--2--2-2-2-2---2-2--2--22222--22222--00000--0-0--00000---2-2--2-2--4-4-4-2-2-2-|
D|-2-2--2--2-2-2-2---2-2--2----------------------------------------------------------|x2


Call me cynical ....





Bridge 1:

e|------------------------------------------------------------------------|
B|------------------------------------------------------------------------|
G|------------------------------------------------------------------------|
D|-4--------7--7--------7-------------------------------------------------|  
A|-4--------7--7--------7-------------------------------------------------|
D|-4--------7--7--------7-------------------------------------------------|





Chorus:

e|------------------------------------------------------------------------|
B|------------------------------------------------------------------------|
G|-6-6-6--2--4----------------6-6-6--2--4---------------------------------|
D|-6-6-6--2--4--2-2--2-2------6-6-6--2--4--2222-2-2-2-2-------------------|  
A|-4-4-4--0--2--2-2--2-2------4-4-4--0--2--2222-2-2-2-2-------------------|
D|--------------2-2--2-2-------------------2222-2-2-2-2-------------------|

yeah so ....


e|------------------------------------------------------------------------|
B|------------------------------------------------------------------------|
G|-6-6-6--2--4------------------------------------------------------------|
D|-6-6-6--2--4--2-2--------4-4-4-4-4-4-4-4-7-7-7-7-7----------------------|  
A|-4-4-4--0--2--2-2--------4-4-4-4-4-4-4-4-7-7-7-7-7----------------------|
D|--------------2-2--12\0--4-4-4-4-4-4-4-4-7-7-7-7-7----------------------|





Repeat 'Pre Verse Intro'





Verse 2:

e|------------------------------------------------------------------------|
B|------------------------------------------------------------------------|
G|-----------------------------2--2-2----2-2-2----------------------------|
D|-2--2-2----2-2-2-------------2--2-2----2-2-2----------------------------|  
A|-2--2-2----2-2-2-------------0--0-0----0-0-0----------------------------|
D|-2--2-2----2-2-2----00-12/0---------------------------------------------|x2

what now ....





Bridge 2:

e|------------------------------------------------------------------------|
B|------------------------------------------------------------------------|
G|------------------------------------------------------------------------|
D|-4-4-4-4-4-4-4-4-4-4-4-4-444422-7-7-7-7-7-7-7-7-7-7-7-7-7-7-7-7---------|  
A|-4-4-4-4-4-4-4-4-4-4-4-4-444422-7-7-7-7-7-7-7-7-7-7-7-7-7-7-7-7---------|
D|-4-4-4-4-4-4-4-4-4-4-4-4-444422-7-7-7-7-7-7-7-7-7-7-7-7-7-7-7-7---------|x2

ours and in our hearts ....





Middle 8:

e|------------------------------------------------------------------------|
B|------------------------------------------------------------------------|
G|------------------------------------------------------------------------|
D|-2-2--2--2--2-----4-4--4--4--4-----7-7--7--7----7-7--7--7---------------|  
A|-2-2--2--2--2-----4-4--4--4--4-----7-7--7--7----7-7--7--7--9\0---9--9\0-|
D|-2-2--2--2--2-----4-4--4--4--4-----7-7--7--7----7-7--7--7--9\0---9--9\0-|x2



e|------------------------------------------------------------------------|
B|------------------------------------------------------------------------|
G|------------------------------------------------------------------------|
D|-2-2--2--2--2-22222\0--4-4--4--4--4-4444-4-44-4-------------------------|  
A|-2-2--2--2--2-22222\0--4-4--4--4--4-4444-4-44-4-------------------------|
D|-2-2--2--2--2-22222\0--4-4--4--4--4-4444-4-44-4-------------------------|

e|------------------------------------------------------------------------|
B|------------------------------------------------------------------------|
G|------------------------------------------------------------------------|
D|-7-7--7--7--7-77777\0--7-7--7--7----------------------------------------|  
A|-7-7--7--7--7-77777\0--7-7--7--7--9\0---9--9\0--------------------------|
D|-7-7--7--7--7-77777\0--7-7--7--7--9\0---9--9\0--------------------------|

yeah we'll tear them apart ....





Bridge 3:

e|------------------------------------------------------------------------|
B|------------------------------------------------------------------------|
G|------------------------------------------------------------------------|
D|-4-4-4-4-4-4-4-4-4-4-4-4-4-4-7-7-7-7-7-7-7-7-7-7-7-7-7-7----------------|  
A|-4-4-4-4-4-4-4-4-4-4-4-4-4-4-7-7-7-7-7-7-7-7-7-7-7-7-7-7----------------|
D|-4-4-4-4-4-4-4-4-4-4-4-4-4-4-7-7-7-7-7-7-7-7-7-7-7-7-7-7----------------|

so whats left to say ....




Repeat 'Chorus'



Repeat 'Pre Verse Intro'
Tap to rate this tab
 
# A B C D E F G H I J K L M N O P Q R S T U V W X Y Z