Song name
# A B C D E F G H I J K L M N O P Q R S T U V W X Y Z

Me Vs Hero - A Loss In The Ranks tab

hey this is my first tab so be gental ;)
standard tuning

|-------------------------------------------|
|-------4----------4----------4----------4--|
|-----4---4------4---4------4---4-------4---|
|---2-------2---2------2---2------2---2-----|
|-2-----------2----------2----------2-------|
|-------------------------------------------|

every so often it goes
|---------------|
|-------4-------|
|-----4---4-----|
|---2-------2---|
|-0-----------2-|
|---------------|

thats pretty much it for the intro

then im not sure but it sounds ok when the into chord for the into is strummed

|---------|
|-4--4--4-|
|-4--4--4-|
|-2--2--2-|
|-2--2--2-|
|---------|

and every so often it goes

|----
|-4--
|-4--
|-2--
|-0--
|----

and thats all fokes

i know its not 100%  email me with any changes
davies9638@googlemail.com
Tap to rate this tab
 
# A B C D E F G H I J K L M N O P Q R S T U V W X Y Z