Song name
# A B C D E F G H I J K L M N O P Q R S T U V W X Y Z

Mean Season - Suffer tab

http://www.myspace.com/meanseason

MEAN SEASON - SUFFER

/  = SLIDE            tr = TRILL              PS = PICK SLIDE
h  = HAMMER ON        DB = DIVEBOMB
p  = PULL OFF         PH = PINCHED HARMONIC
LR = LET RING         PM = PALM MUTE


    E|--- x5 ---|--- x3 ---|-------------------|
    B|-------14-|-------13-|-------16-------13-|
GTR G|----------|----------|-------------------|    
 1  D|----------|----------|-------------------|              
    A|-16-------|-15-------|-15-------15-15----|
    D|----14----|----13----|----13-------------|

    E|--- x4 ---|-------------|--- x3 ---|-------------------|
    B|-------14-|-17-------14-|-------13-|-------16-------13-|
GTR G|----------|-------------|----------|-------------------|    
 1  D|----------|-------------|----------|-------------------|              
    A|-16-------|----16-------|-15-------|-15-------15-15----|
    D|----14----|-------14----|----13----|----13-------------|

    E|--------------------------------------------------------|
    B|--------------------------------------------------------|
GTR G|--------------------------------------------------------|    
 1  D|9---9/11-11/13-13/15/16---8h9p8--15-16-15-14-15-16-15-13|              
    A|--------------------------------------------------------|
    D|--------------------------------------------------------|

    E|-----------------------------------------------------|
    B|-----------------------------------------------------|
GTR G|-----------------------------------------------------|    
 2  D|-2----2----2----2----2----2-1----1----1----1----1----|              
    A|-2-22-2-22-2-22-2-22-2-22-2-1-11-1-11-1-11-1-11-1-11-|
    D|-2-22-2-22-2-22-2-22-2-22-2-1-11-1-11-1-11-1-11-1-11-|
         PM   PM   PM   PM   PM     PM   PM   PM   PM   PM

    E|--------------------------------------------------------|
    B|--------------------------------------------------------|
GTR G|-9------11--9--8--9--11-9-15/16--15-13-11-13-15-13-8----|    
 1  D|--------------------------------------------------------|              
    A|--------------------------------------------------------|
    D|--------------------------------------------------------|

    E|-----------------------------------------------------|
    B|-----------------------------------------------------|
GTR G|-----------------------------------------------------|    
 2  D|-2----2----2----2----2----2-1----1----1----1----1----|              
    A|-2-22-2-22-2-22-2-22-2-22-2-1-11-1-11-1-11-1-11-1-11-|
    D|-2-22-2-22-2-22-2-22-2-22-2-1-11-1-11-1-11-1-11-1-11-|
         PM   PM   PM   PM   PM     PM   PM   PM   PM   PM

    E|-------------|-----------------------------|
    B|-14-12-11-12-|-12tr13-10tr11-9tr10-7tr8----|
GTR G|-------------|---------------------------8-|    
 1  D|-------------|-----------------------------|              
    A|-------------|-----------------------------|
    D|----- x4 ----|-----------------------------|

    E|-----------------------------------------------------|
    B|-----------------------------------------------------|
GTR G|-----------------------------------------------------|    
 2  D|-2----2----2----2----2----2-1----1----1----1----1----|              
    A|-2-22-2-22-2-22-2-22-2-22-2-1-11-1-11-1-11-1-11-1-11-|
    D|-2-22-2-22-2-22-2-22-2-22-2-1-11-1-11-1-11-1-11-1-11-|
         PM   PM   PM   PM   PM     PM   PM   PM   PM   PM

    E|----------------------------------------------------|
    B|----------------------------------------------------|
GTR G|-9--------9/11-----9----11-------8h9p8-(DB)---------|    
 1  D|----------------------------------------------------|              
    A|----------------------------------------------------|
    D|----------------------------------------------------|

    E|----------------------------------------------------|
    B|----------------------------------------------------|
GTR G|----------------------------------------------------|    
 2  D|-2-----2-----2-----2-----2-----2-1-----1-----1------|              
    A|-2-2-2-2-2-2-2-2-2-2-2-2-2-2-2-2-1-1-1-1-1-1-1------|
    D|-2-2-2-2-2-2-2-2-2-2-2-2-2-2-2-2-1-1-1-1-1-1-1------|
         P M   P M   P M   P M   P M     P M   P M  

    E|---------------------------------------------------|
    B|----------------------------5(PH)-4(PH)------------|
GTR G|--------------4(PH)--------------------------------|   
 1  D|1--2--1--2----------1--2----------------1--22------|              
    A|1--2--1--2-22-------1--2-22-------------1--22-----1|
    D|1--2--1--2-22-------1--2-22-------------1--22-3-4--|
                  PM            PM               PM P M

    E|---------------------------------|
    B|---------------------------------|
GTR G|---------------------------------| 
 2  D|-1--2--1--2------1--2------1--2--|              
    A|-1--2--1--2--22--1--2--22--1--2--|
    D|-1--2--1--2--22--1--2--22--1--2--|
                   PM        PM

    E|------------------------------------------------------|
    B|----------------------------5(PH)-4(PH)---------------|
GTR G|--------------4(PH)-----------------------------------|   
 1  D|1--2--1--2----------1--2----------------1--2--2-------|              
    A|1--2--1--2-22-------1--2-22-------------1--2--2------1|
    D|1--2--1--2-22-------1--2-22-------------1--2--2--1h2--|
                 PM            PM                      PM  

    E|-----------------------------------------------|
    B|-----------------------------------------------|
GTR G|-----------------------------------------------| 
 2  D|-1------2------1------2-------1--2------1--2---|              
    A|-1------2------1------2--2-2--1--2--22--1--2---|
    D|-1111111222222211111112222-2--1--2--22--1--2---|
                               P M        PM


    E|--------------------------|
    B|---4-----5-4----4-----5-4-|
GTR G|--------------------------| x2   
 1  D|-6----6-------7---7-7-----|              
    A|--------------------------|
    D|--------------------------|

    E|--------------------------|
    B|--------------------------|
GTR G|--------------------------| x2
 2  D|-6------------------------|              
    A|-6-(LR)-------------------|
    D|-6------------------------|

    E|--------------------------|
    B|---4-----5-4----6-----5-4-|
GTR G|--------------------------| x2   
 1  D|-6----6-------7---7-7-----|              
    A|--------------------------|
    D|--------------------------|

    E|-------------------------|
    B|-4-(LR)------------------|
GTR G|-------------------------| x2    
 2  D|-------------------------|              
    A|-------------------------|
    D|-------------------------|

    E|--------------------------------|
    B|----9-----10---9----9-----10--9-|
GTR G|-------8--------------8---------|
 1  D|-6---------------7--------------| x3           
    A|--------------------------------|
    D|--------------------------------|

    E|------------------------------|
    B|------------------------------|
GTR G|------------------------------|    
 2  D|-6---------------7------------| x3              
    A|-6---------------7------------|
    D|-6---------------7------------|

    E|----------------------------------|
    B|----9-----10--9-----9-----9/10h12-|
GTR G|-------8---------------8----------|    
 1  D|-6---------------7----------------|              
    A|----------------------------------|
    D|----------------------------------|

    E|----------------------------------|
    B|----------------------------------|
GTR G|----------------------------------|    
 2  D|-6---------------7----------------|              
    A|-6---------------7----------------|
    D|-6---------------7----------------|

    E|--------------------------|-------|---------|
    B|----9------10-9-----9-----|-10-9--|-8h10-11-|
GTR G|--------8--------------8--|-------|---------|
 1  D|-6---------------7--------|-------|---------|     
    A|--------------------------|-- 1 --|--- 2 ---|
    D|--------------------------|-------|---------|

    E|---------------------------------|
    B|---------------------------------|
GTR G|---------------------------------| x2
 2  D|---------------------------------|              
    A|-6-6-6-6-6-6-6-6-7-7-7-7-7-7-7-7-|
    D|-6-6-6-6-6-6-6-6-7-7-7-7-7-7-7-7-|
       P M P M P M P M P M P M P M P M

    E|--------------------------|---------|------|
    B|----9------10-9-----9-----|-8h10-11-|-10-9-|
GTR G|--------8--------------8--|---------|------|
 1  D|-6---------------7--------|---------|------|     
    A|--------------------------|--- 1 ---|-- 2 -|
    D|--------------------------|---------|------|

    E|---------------------------------|
    B|---------------------------------|
GTR G|---------------------------------| x2
 2  D|---------------------------------|              
    A|-6-6-6-6-6-6-6-6-7-7-7-7-7-7-7-7-|
    D|-6-6-6-6-6-6-6-6-7-7-7-7-7-7-7-7-|
       P M P M P M P M P M P M P M P M

    E|-------- 1,2,4 --------|---------- 3 ----------------|
    B|-----------------------|-----------------------------|
GTR G|-----9/8-9/11----------|-----9/8-9/11----------5(PH)-|    
 1  D|-1------------4--1-1-1-|-1------------4--1-----------|              
    A|-1---7/6-7/9--4--1-1-1-|-1---7/6-7/9--4--1-11--------|
    D|-1------------4--1-1-1-|-1------------4--1-11--------|
                                                 PM

    E|-------- 1,2,4 --------|---------- 3 ----------------|
    B|-----------------------|-----------------------------|
GTR G|-----------------------|-----------------------------|    
 2  D|-1------------4--1-1-1-|-1------------4--1-1-1-------|              
    A|-1---2p1-2h4--4--1-1-1-|-1---2p1-2h4--4--1-1-1-------|
    D|-1---2p1-2h4--4--1-1-1-|-1---2p1-2h4--4--1-1-1-------|

    E|-------------------------|-- 1,3 -|--- 2 --|
    B|-------------------------|--------|--------|
GTR G|-------------------------|--------|-15(PH)-|    
 1  D|-1------------1-4---1----|-13(PH)-|--------|              
    A|-1----7-6-7-9-1-4---1-11-|--------|--------|
    D|-1------------1-4---1-11-|--------|--------|
            P M P MPM        PM

    E|-------------------------|-- 1,3 -|--- 2 --|
    B|-------------------------|--------|--------|
GTR G|-------------------------|--------|--------|    
 1  D|-1------------1----------|--------|--------|              
    A|-1----7-6-7-9-1-44441111-|-1-1-1--|-1-1-1--|
    D|-1------------1-44441111-|-1-1-1--|-1-1-1--|
            P M P MPM PMPMPMPM

    E|--------- 1,2,4 ------------------|
    B|----------------------------------|
GTR G|------9/8-9/11--------------------|    
 1  D|-1-------------4---1-1-1-1--1-----|              
    A|-1----7/6-7/9--4---1-1-1-1--1(LR)-|
    D|-1-------------4---1-1-1-1--1-----|
                           P M     

    E|--------- 1,2,4 ------------------|
    B|----------------------------------|
GTR G|------9/8-9/11--------------8-----|    
 2  D|-1-------------4---1-1-1-1--------|              
    A|-1----7/6-7/9--4---1-1-1-1--6(LR)-|
    D|-1-------------4---1-1-1-1--0-----|
                           P M     

    E|----------------------------------------|
    B|----------------------------------------|
GTR G|----------------------------------------|    
 1  D|---2--1-----------------2--1------------|              
    A|-1-2--1-(LR)----------1-2--1-(LR)-------|
    D|-1-2--1---------------1-2--1------------|
      PM                   PM

    E|----------------------------------------|
    B|----------------------------------------|
GTR G|----------------------------------------|    
 2  D|----------DB-------------------DB-------|              
    A|----------------------------------------|
    D|----------------------------------------|

    E|----------------------------|
    B|----------------------------|
GTR G|----------------------------|    
 1  D|---2--1---------------------|              
    A|-1-2--1-(LR)----------------|
    D|-1-2--1---------------------|
      PM                  

    E|----------------------------|
    B|----------------------------|
GTR G|---------------8-9-11-9-8-6-|    
 2  D|----------------------------|              
    A|---------------6-7-9--7-6-4-|
    D|----------------------------|

    E|------------------------------------------|
    B|------------------------------------------|
GTR G|------------------------------------------|    
 1  D|------------------------------------------|              
    A|-11111111111111-2-11111111-9-8----------7-|
    D|-11111111111111-2-11111111-----10-9-4-5---|
       PMPMPMPMPMPMPM   PMPMPMPM P M PM P M P M

    E|------------------------------------------|
    B|------------------------------------------|
GTR G|------------------------------------------|    
 2  D|-1--------------2-1--------2--------------|              
    A|-1-(LR)---------2-1-(LR)---2--------------|
    D|-1--------------2-1--------2--------------|

    E|-------------------------------------------------|
    B|-------------------------------------------------|
GTR G|-------------------------------------------------|    
 1  D|-------------------------------------------------|              
    A|-11111111-2-11-2-11-1-2--------------9-8-------7-|
    D|-11111111-2-11-2-11-1-2-----11111111-----9-4-5---|
       PMPMPMPM   PM   PM PM      PMPMPMPM P M P M P M 

    E|------------------------------------------|
    B|------------------------------------------|
GTR G|------------------------------------------|    
 2  D|-1--------------2-1--------2--------------|              
    A|-1-(LR)---------2-1-(LR)---2--------------|
    D|-1--------------2-1--------2--------------|

    E|---------------------------------|
    B|---------------------------------|
GTR G|---------------------------------|    
 1  D|-------7-6-----8-7-----7-6-----7-| x4            
    A|-6-6-------7-6-----8-7-----7-6---|
    D|---------------------------------|
       P M   P M P M P M P M P M P M PM

    E|---------------------------------|
    B|---------------------------------|
GTR G|---------------------------------| x4   
 2  D|---------------------------------|              
    A|-1-1-----------------------------|
    D|-1-1-----------------------------| 
       P M

    E|----------------------------------------------|
    B|----------------------------------------------|
GTR G|----------------------------------------------|    
 1  D|-------7--6--------8--7--------7--6--------7--| x4            
    A|-6-6---------7--6--------8--7--------7--6-----|
    D|----------------------------------------------|
       P M   P  M  P  M  P  M  P  M  P  M  P  M  PM

    E|----------------------------------------------|
    B|----------------------------------------------|
GTR G|-------22-21-------23-22-------22-21-------22-| x4   
 2  D|-------------22-21-------23-22-------22-21----|              
    A|-1-1------------------------------------------|
    D|-1-1------------------------------------------| 
       P M

    E|------------------------------------------|
    B|----------------6-------------6-----6--5--|
GTR G|------------------------------------------| x2   
1+2 D|------------------------------------------|              
    A|-11111111111111---------------------------|
    D|-11111111111111----1111111111----1--------| 
       PMPMPMPMPMPMPM    PMPMPMPMPM    PM

    E|- x7 |---|- x5 |--------------|
    B|-----|-6-|-----|---6-----6--5-|
GTR G|-----|---|-----|--------------| x2    
 1  D|-----|---|-----|--------------|              
    A|-111-|---|-111-|-1-----1------|
    D|-111-|---|-111-|-1-----1------| 
       P M       P M   PM    PM

    E|- x7 |-5-|- x5 |---6-----6--5--|
    B|-----|---|-----|---------------|
GTR G|-----|---|-----|---------------| x2   
 2  D|-----|---|-----|---------------|              
    A|-111-|---|-111-|-1----1--------|
    D|-111-|---|-111-|-1----1--------| 
       P M       P M   PM   PM

    E|-------------------------------------------------------|
    B|-------------------------------------------------------|
GTR G|-------------------------------------------------------|    
 1  D|---2--1-----------2--1---------2--1--------2--1--------|              
    A|-1-2--1-(LR)----1-2--1-(LR)--1-2--1-(LR)-1-2--1-(LR)---|
    D|-1-2--1---------1-2--1-------1-2--1------1-2--1--------|
      PM               PM           PM          PM

    E|-------------------------------------------------------|
    B|-------------------------------------------------------|
GTR G|----------------------------------------------------PS-|    
 2  D|--------DB---------------DB----------------------------|              
    A|-------------------------------------------------------|
    D|-------------------------------------------------------|

    E|-------------------------------------------------|
    B|-------------------------------------------------|
GTR G|-------------------------------------------------|    
 1  D|-------------------------------------------------|              
    A|-11111111-2-11-2-11-1-2--------------9-8-------7-|
    D|-11111111-2-11-2-11-1-2-----11111111-----9-4-5---|
       PMPMPMPM   PM   PM PM      PMPMPMPM P M P M P M 

    E|------------------------------------------|
    B|------------------------------------------|
GTR G|------------------------------------------|    
 2  D|-1--------------2-1--------2--------------|              
    A|-1-(LR)---------2-1-(LR)---2--------------|
    D|-1--------------2-1--------2--------------|

    E|-------------------------------------------------|
    B|-------------------------------------------------|
GTR G|-------------------------------------------------|    
 1  D|-------------------------------------------------|              
    A|-11111111-2-11-2-11-1-2--------------9-8-------7-|
    D|-11111111-2-11-2-11-1-2-----11111111-----9-4-5---|
       PMPMPMPM   PM   PM PM      PMPMPMPM P M P M P M 

    E|------------------------------------------|
    B|------------------------------------------|
GTR G|------------------------------------------|    
 2  D|-1--------------2-1--------2--------------|              
    A|-1-(LR)---------2-1-(LR)---2--------------|
    D|-1--------------2-1--------2--------------|

    E|----------------------------------------|
    B|----------------------------------------|
GTR G|----------------------------------------|    
1+2 D|----------------------------------------|              
    A|----------------------------------------|
    D|-1 (LR)---------------------------------|

END
Tap to rate this tab
 
# A B C D E F G H I J K L M N O P Q R S T U V W X Y Z