Song name
# A B C D E F G H I J K L M N O P Q R S T U V W X Y Z

Means - Cadences tab

Help us improve GuitareTab! Take a short survey!
LINK TO SITE: http://facedownrecords.com/family_means.html

CADENCES
As recorded by Means
(From the 2007 Album SENDING YOU STRENGTH)

Transcribed by Chris Allan	

Words by Thomas Merton/Matt Goud 
Music by Means
DROP C TUNING

 Piano Intro
  Q=110
  N.C.
 4/4
  Gtr II
|--------12-(12)----|-(12)--------|-------------------|---------|
|-------------------|-------------|--------14-(14)----|-(14)----|
|-----13------------|-------------|-----13------------|---------|
|---6---------------|-------------|---6---------------|---------|
|-5-----------------|-------------|-5-----------------|---------|
|-------------------|-------------|-------------------|---------|


  N.C.
|--------12-(12)----|-(12)--------|-------------------|---------------|
|-------------------|-------------|--------14-(14)----|-12---10---9---|
|-----13------------|-------------|-----13------------|---------------|
|-------------------|-------------|-------------------|---------------|
|---4---------------|-------------|---4---------------|---------------|
|-4-----------------|-------------|-4-----------------|---------------|


  N.C.
|--------12-(12)----|-(12)--------|-------------------|---------|
|-7-----------------|-------------|--------14-(14)----|-(14)----|
|-----13------------|-------------|-----13------------|---------|
|---6---------------|-------------|---6---------------|---------|
|-5-----------------|-------------|-5-----------------|---------|
|-------------------|-------------|-------------------|---------|


  N.C.
|--------12-(12)----|-(12)--------|-------------------|---------------|
|-------------------|-------------|--------14-(14)----|-12---10---9---|
|-----13------------|-------------|-----13------------|---------------|
|-------------------|-------------|-------------------|---------------|
|---4---------------|-------------|---4---------------|---------------|
|-4-----------------|-------------|-4-----------------|---------------|


  N.C.
|-------0-(0)----|-(0)--------|----------------|---------------|
|-7--------------|------------|-------2-(2)----|-12---10---9---|
|----------------|------------|-----2----------|------11---9---|
|-4---7----------|------------|---6------------|---------------|
|---5------------|------------|-5--------------|---------------|
|----------------|------------|----------------|---------------|


  N.C.
|----------------|------------|----------------|-------------|
|-------5-(5)----|-(5)--------|----------------|-0-----------|
|-------6-(6)----|-(6)--------|-------6-(6)----|-----2-------|
|-----6----------|------------|-----6----------|---------6---|
|---4------------|------------|---4------------|-------------|
|-4--------------|------------|-4--------------|-------------|


  N.C.
|----------|--------||
|-5--------|-(5)----||
|-6--------|-(6)----||
|-7--------|-(7)----||
|-5--------|-(5)----||
|----------|--------||


    Q=140
    N.C.
   4/4
    Gtr I
||---------------------|---------------------|
||o--------10----------|---------------------|
||------------------11-|-(11)------9---------|
||----11-------11------|------11------11-----|
||o-9----9--------9----|---------9-------9-5-|
||---------------------|---------------------|


|----------------|-----------------------||
|-------5--------|----------------------o||
|--------------6-|-(6)-----4-------------||
|---7------7-----|-----7------7----------||
|-4---4------4---|-------4------4-(4)/--o||
|----------------|-----------------------||


   "Will you stand with us?"
    N.C.
||---------------------|---------------------|
||o--------10----------|---------------------|
||------------------11-|-(11)------9---------|
||----11-------11------|------11------11-----|
||o-9----9--------9----|---------9-------9-5-|
||---------------------|---------------------|


|----------------|----------------------||
|-------5--------|---------------------o||
|--------------6-|-(6)-----4------------||
|---7------7-----|-----7------7---------||
|-4---4------4---|-------4------4-(4)/-o||
|----------------|----------------------||


    N.C.
||---------------------|----------------|
||o--------------------|----------------|
||---------------------|----------------|
||----11---11---11---9-|---9---7---7----|
||o-9----9----9----9---|-9---9---9---9--|
||---------------------|----------------|


|------------------------|----------------------||
|------------------------|---------------------o||
|------------------------|----------------------||
|---11---11---11---11h12-|-(12)-11--9---(9)\----||
|-9----9----9----9-------|---------------------o||
|------------------------|----------------------||


  N.C.
|-------------------------|-------------------------|
|-------------------------|-------------------------|
|-14-14-14-13-13-13-14-14-|-14-11-11-11-11-11-11-11-|
|--x--x--x--x--x--x--x--x-|--x--x--x--x--x--x--x--x-|
|-12-12-12-11-11-11-12-12-|-12--9--9--9--9--9--9--9-|
|-------------------------|-------------------------|


|-------------------------|--------------------------|
|-------------------------|--------------------------|
|-14-14-14-13-13-13-18-18-|-18-16-16-16-16-16-16-16--|
|--x--x--x--x--x--x--x--x-|--x--x--x--x--x--x--x--x--|
|-12-12-12-11-11-11-16-16-|-16-14-14-14-14-14-14-14--|
|-------------------------|--------------------------|


  N.C.
|-------------------------|-------------------------|
|-------------------------|-------------------------|
|-14-14-14-13-13-13-14-14-|-14-11-11-11-11-11-11-11-|
|--x--x--x--x--x--x--x--x-|--x--x--x--x--x--x--x--x-|
|-12-12-12-11-11-11-12-12-|-12--9--9--9--9--9--9--9-|
|-------------------------|-------------------------|


|-------------------------|--------------------------|
|-------------------------|--------------------------|
|-14-14-14-13-13-13-18-18-|-18-16-16-16-14-14-14-14--|
|--x--x--x--x--x--x--x--x-|--x--x--x--x--x--x--x--x--|
|-12-12-12-11-11-11-16-16-|-16-14-14-14-12-12-12-12--|
|-------------------------|--------------------------|


  N.C.
|-----------|-------------|-------------|---------||
|-----------|-------------|-------------|---------||
|-14--------|-(14)--------|-(14)--------|-(14)----||
|--x--------|--(x)--------|--(x)--------|--(x)----||
|-12--------|-(12)--------|-(12)--------|-(12)----||
|-----------|-------------|-------------|---------||


   "I have to learn these..."
    N.C.
||-----17-------17----------|------------12-----------|
||o-------17-------17-------|---------12-----12----12-|
||--18-------18-------18s14-|-(14)-14-----------14----|
||--------------------------|-------------------------|
||o-------------------------|-------------------------|
||--------------------------|-------------------------|


                                         4x
|--------12----------|---12--------------||
|---10-------10---10-|-------10---10----o||
|-9----9--------9----|-9--------9----9---||
|--------------------|-------------------||
|--------------------|------------------o||
|--------------------|-------------------||


  N.C.       E           A/D
                        6/4
|----------|-12--------|----------------------||
|-9--------|--9--------|----------------------||
|-9--------|--9--------|-6-6-6---6--6-6-6-6\--||
|----------|-----------|-4-4-4---4--4-4-4-4\--||
|----------|-----------|-5-5-5---5--5-5-5-5\--||
|----------|-----------|----------------------||


   "I need a strong..."
                    1.,2.,3.          4.
    D5
   4/4
    PM---------------------------------------|
                                   4x
||----------------|----------------||---------------|
||o---------------|---------------o||---------------|
||----------------|----------------||---------------|
||----------------|----------------||---------------|
||o-0-0-0---0-0-0-|-0-0-0---0-0-0-o||-0-0-0---------|
||--0-0-0---0-0-0-|-0-0-0---0-0-0--||-0-0-0---0-0-0-|


  N.C.
|---------------|----------------|---------------|-----------------|
|---------------|----------------|---------------|-----------------|
|---------------|----------------|---------------|-----------------|
|---------------|----------------|---------------|-----------------|
|---------------|----------------|---------------|-----------------|
|-0-0-0---0-0-0-|-0-0-0-0--0-0-0-|-0-0-0---0-0-0-|-0-0-0-0--0-0-0--|


  D5                                                N.C.
  PM----------------------------------------------|
|---------------|---------------|---------------|-----------------------|
|---------------|---------------|---------------|-----------------------|
|---------------|---------------|---------------|---14---11---13-13-13--|
|---------------|---------------|---------------|----x----x----x--x--x--|
|-0-0-0---0-0-0-|-0-0-0---0-0-0-|-0-0-0---0-0-0-|-0-12----9---11-11-11--|
|-0-0-0---0-0-0-|-0-0-0---0-0-0-|-0-0-0---0-0-0-|-0----0----0-----------|


  N.C.            D5                                          N.C.
|-----------------------|-------------|---------------|------------------||
|-----------------------|-------------|---------------|------------------||
|-13-14-14-(14)\--------|-------------|---------------|----------9-(9)/--||
|--x--x--x--(x)---0-0-0-|-0-----0-0-0-|-0-0-0---0-0-0-|-0-----11---------||
|-11-12-12-(12)\--0-0-0-|-0-----0-0-0-|-0-0-0---0-0-0-|-0----------------||
|-----------------0-0-0-|-0-----0-0-0-|-0-0-0---0-0-0-|-0----------------||


 Pretty part 1
  A      A5/E   E          A5/E
|-17-17--12-12--12-12-|-12-12-12-12-12-12-12-12-|
|-14-14--10-10---9--9-|--9-10-10-10-10-10-10-10-|
|-14-14---9--9---9--9-|--9--9--9--9--9--9--9--9-|
|---------------------|-------------------------|
|---------------------|-------------------------|
|---------------------|-------------------------|


  A      A5/E   E          A5/E
|-17-17--12-12--12-12-|-12-12-12-12-12-12-12-12--|
|-14-14--10-10---9--9-|--9-10-10-10-10-10-10-10--|
|-14-14---9--9---9--9-|--9--9--9--9--9--9--9--9--|
|---------------------|--------------------------|
|---------------------|--------------------------|
|---------------------|--------------------------|


  A      A5/E   E          A5/E
|-17-17--12-12--12-12-|-12-12-12-12-12-12-12-12-|
|-14-14--10-10---9--9-|--9-10-10-10-10-10-10-10-|
|-14-14---9--9---9--9-|--9--9--9--9--9--9--9--9-|
|---------------------|-------------------------|
|---------------------|-------------------------|
|---------------------|-------------------------|


  A                 E5/B
|-17-17-17-17-17-17-19-19-|-19b20==19-19-19-19-19-19-19---|
|-14-14-14-14-14-14-17-17-|-17b18--17-17-17-17-17-17-17---|
|-14-14-14-14-14-14-16-16-|-16b17==16-16-16-16-16-16-16r--|
|-------------------------|-------------------------------|
|-------------------------|-------------------------------|
|-------------------------|-------------------------------|


  A      A5/E   E          A5/E
|-17-17--12-12--12-12-|-12-12-12-12-12-12-12-12-|
|-14-14--10-10---9--9-|--9-10-10-10-10-10-10-10-|
|-14-14---9--9---9--9-|--9--9--9--9--9--9--9--9-|
|---------------------|-------------------------|
|---------------------|-------------------------|
|---------------------|-------------------------|


  A      A5/E   E          A5/E
|-17-17--12-12--12-12-|-12-12-12-12-12-12-12-12--|
|-14-14--10-10---9--9-|--9-10-10-10-10-10-10-10--|
|-14-14---9--9---9--9-|--9--9--9--9--9--9--9--9--|
|---------------------|--------------------------|
|---------------------|--------------------------|
|---------------------|--------------------------|


  A      A5/E   E          A5/E
|-17-17--12-12--12-12-|-12-12-12-12-12-12-12-12-|
|-14-14--10-10---9--9-|--9-10-10-10-10-10-10-10-|
|-14-14---9--9---9--9-|--9--9--9--9--9--9--9--9-|
|---------------------|-------------------------|
|---------------------|-------------------------|
|---------------------|-------------------------|


  A      A5/E   E          A5/E     E
|-17-17--12-12--12-12-|-12-12-12-12-12-12-12-12--|
|-14-14--10-10---9--9-|--9-10-10-10--9--9--9--9--|
|-14-14---9--9---9--9-|--9--9--9--9--9--9--9--9--|
|---------------------|--------------------------|
|---------------------|--------------------------|
|---------------------|--------------------------|


  E/D         D/F#
|-12--------|---------------|-------------|---------||
|--9--------|---------------|-------------|---------||
|--9--------|-11--11--11----|-(11)--------|-(11)----||
|--0--------|--0---0---0----|--(0)--------|--(0)----||
|-----------|--9---9---9----|--(9)--------|--(9)----||
|-----------|---------------|-------------|---------||


 Pretty part 2/ Outro
  N.C.
|-----------------|---------------------|
|-----------------|---------------------|
|-----------------|---------------------|
|-------------7-7-|-7-9-9-9-11-11-11-11-|
|-9-9-9-7-7-7-----|---------------------|
|-----------------|---------------------|


|-----------------|----------------------|
|-----------------|----------------------|
|-----------------|----------------------|
|-------------7-7-|-7-9-9-9-11-11-11-11--|
|-9-9-9-7-7-7-----|----------------------|
|-----------------|----------------------|


    N.C.
||--------------------------|-------------------------|
||o----------15-15-15-------|----------------------10s|
||--11-11-11----------14-14-|-14----------------------|
||--------------------------|----12-12-12-14-14-14----|
||o-------------------------|-------------------------|
||--------------------------|-------------------------|


                                                     7x
|----------17-17-17-------|--------------------------||
|-14-14-14----------12-12-|-12----------------------o||
|-------------------------|----13-13-13-13h14-13h14--||
|-------------------------|--------------------------||
|-------------------------|-------------------------o||
|-------------------------|--------------------------||



** Generated using Power Tab Editor by Brad Larsen: The Official Power Tab Web Site
Related for Cadences tab