Song name
# A B C D E F G H I J K L M N O P Q R S T U V W X Y Z

Meat Loaf - Hot Patootie tab

From the album The Rocky Horror Picture Show c1975

This is the part of the song where Eddie(Meatloaf) stops dancing and is blowing away at 
saxaphone in Dr.Frank-N-Furter's laboratory. P.S. Use enough distortion untill you get a 
quality sound that a saxaphone would usually make.
                   "Hot Patootie(Bless My Soul)"

E-16/18--16/18--16/18--16-------------------------------------------|
B--------------------------18-16---------------16~\5---17-17-17-----|
G----------------------------------18-15--18~-----------------------|
D-------------------------------------------------------------------|
A-------------------------------------------------------------------|
E-------------------------------------------------------------------|

E-------------------------------------hold v note-------------------|
B-17p16------------------------------------16---\----14h16-----14~--|
G--------18--15--18--16\15--13--15~\0-------------------------------|
D-------------------------------------------------------------------|
A-------------------------------------------------------------------|
E-------------------------------------------------------------------|

E-----14-------------------14b^v^v^v^--16--13-----------------------|
B---------------------------------------------16-14-----14----------|
G-15------16--15--13---15----------------------------15----15--13---|
D-------------------------------------------------------------------|
A-------------------------------------------------------------------|
E-------------------------------------------------------------------|

E-------------------------------------------------------------------|
B-------------------------------------------------------------------|
G-15---15\5-----15---15\5-------------------------------------------|
D-------------------------------------------------------------------|
A-------------------------------------------------------------------|
E-------------------------------------------------------------------|

Tabbed By: Danny 5
Tap to rate this tab
 
# A B C D E F G H I J K L M N O P Q R S T U V W X Y Z