Song name
# A B C D E F G H I J K L M N O P Q R S T U V W X Y Z

Meat Puppets - Lake Of Fire tab

#

From: jjjessee@naxs.com (JJ Jessee)
Subject: Lake of fire tab
Date: Sun, 31 Mar 1996 20:49:24 -0500


  This tab is in standard tuning. Although the guitars were tuned down in the 
 preformance you can still play along with the recording.
 this was written bby the meet puppets my name is Gabe  Jessee and I tabbed it


        Slide=/
        vibrato=~~
        Hammer on=h
        bend=( )
Intro\Verse
Guitar 1
1:------2-2-2-0-0---------2-2-2-------------2-2-2-0-0---
2:------2-2-2-0-0-2-------2-2-2-4~4~4~2-----2-2-2-0-0-2-
3:------2-2-2-1-1-2-------2-2-2-4~4~4~2-----2-2-2-1-1-2-
4:--4-4-4-4-4-2-2-2-4-4-4-4-4-4---------4-4-4-4-4-2-2-2-
5:--4-4-4-4-4-2-2-0-4-4-4-4-4-4---------4-4-4-4-4-2-2-0-
6:--2-2-2-2-2-0-0---2-2-2-2-2-2---------2-2-2-2-2-0-0---

Guitar 2
1:------2-2-2-0-0---------2-2-2-------------2-2-2-0-0---
2:------2-2-2-0-0-2-------2-2-2-4-4-4-2-----2-2-2-0-0-2-
3:------2-2-2-1-1-2-------2-2-2-4-4-4-2-----2-2-2-1-1-2-
4:--4-4-4-4-4-2-2-2-4-4-4-4-4-4-4-4-4-2-4-4-4-4-4-2-2-2-
5:--4-4-4-4-4-2-2-0-4-4-4-4-4-4-2-2-2-0-4-4-4-4-4-2-2-0-
6:--2-2-2-2-2-0-0---2-2-2-2-2-2---------2-2-2-2-2-0-0---
                                          For this fast part use 
Guitar 1                                  your pick and middel finger
1:----------------------------------------5~-5~-5~-5~-0-0-2-
2:--4-4-4-4-4-----------------------------------------------
3:--4-4-4-4-4---------------------------/6~-6~-6~-6~--1-1-2-
4:--4-4-4-4-4-2-2-0h4--4-4-4-4-4-2-2-4----------------------
5:--2-2-2-2-2-2-2-0h4--4-4-4-4-4-2-2-4----------------------
6:------------0-0-0h2--2-2-2-2-2-0-0-2---------------------- 

Guitar 2
1:------------------------------------------------------
2:--4-4-4-4-4-------------------------------------------
3:--4-4-4-4-4-------------------------------------------
4:--4-4-4-4-4-2-2-0h4--4-4-4-4-4-2-2-4--4-4-4-4-4-2-2-4-
5:--2-2-2-2-2-2-2-0h4--4-4-4-4-4-2-2-4--4-4-4-4-4-2-2-4-
6:------------0-0-0h2--2-2-2-2-2-0-0-2--2-2-2-2-2-0-0-2-


Bridge both guitars do the same thing

        C#m= x46654
        G#7= 464544
          A= x02200
          B= x2444x
 It goes like this C#m 5 times A 3 times C#m 5 times G#7 3 times 
 C#m 5 times A 3 times B 6 times C#m 3 times


Solo: Guitar 1 plays the solo Guitar 2 plays the intro a couple 
hundred times over top of it

1:-----2-----2------------------------------------------------
2:-1/2---2-5~--5-2--------------------------------------(2)---
3:-----------------2------------------------------------(2)---
4:-------------------4----------------------------2-2h4-----4-
5:---------------------4~-4-3-2-------------2-3-4-------------
6:------------------------------5-2-2~--2-4-------------------

1:---------------------------------------------------
2:-----5~~5~~----------------------------------5-----
3:-4/6--6~~~6~~\4-2-------------------------/6---6\--
4:------------------4--2~--2~~-2~--------------------
5:-----------------------4~~-4~~-3-2-----------------
6:-----------------------------------5-2-2~----------

1:-----2---------------------------------------------------------
2:-1/2---5---2-------------(2)-------(2)-----(2)-----------------
3:---------4---2-4---------(2)-------(2)-----(2)-----------------
4:-----------------2-2-2h4-----4-2h4-----4-4-----4-4-2-----------
5:-----------------------------------------------------4-2-------
6:---------------------------------------------------------5-2-2~

1:------------------------
2:------------------------
3:------------------------ Any questions or comments my Email address
4:-----------2-2h4--------      is JJJessee@naxs.com
5:-----2-3-4-------2------
6:-2-5---------------0-0h2
Tap to rate this tab
# A B C D E F G H I J K L M N O P Q R S T U V W X Y Z