Song name
# A B C D E F G H I J K L M N O P Q R S T U V W X Y Z

Meat Puppets - Wipeout tab

 verse
|-------------------------------|
|-------------------------------|
|-------------------------------|
|-------------------------------|
|--5-5\6--4-3-------------------|
|--3-3\4--2-1-------------------|

chorus
|-------------------------------|  |----------|  |------------------|
|-------------------------------|  |--xxxx-5--|  |--xxxx-5b---------|
|-------------------------------|  |--xxxx-5--|  |--xxxx-5b---------|
|-5-5-6-7-8-8-7-6-5-------------|  |--xxxx-3--|  |--xxxx-3b---------|
|-3-3-4-5-6-6-5-4-3-------------|  |----------|  |------------------|
|-------------------------------|  |----------|  |------------------|

sorry that i don't have the chorus

Tap to rate this tab
# A B C D E F G H I J K L M N O P Q R S T U V W X Y Z