Song name
# A B C D E F G H I J K L M N O P Q R S T U V W X Y Z

Meat Puppets - Up On The Sun tab

-------------------------------------------------------------------------------
			     Up On the Sun – Meat Puppets
-------------------------------------------------------------------------------
Tabbed by: Omri Cohen
Email: i.m.bleach@gmail.com

Tuning: standard

I decided to tab this song out because I noticed UG didn't have a
proper/correct tab; 
one tab has all the chords wrong and the other one is just the intro, so her's the entire thing

Intro
E|-----------------------------------------------------------------------|
B|-----------------------------------------------------------------------|
G|---6[~]-4-------------------------6[~]-4-------------------------------|
D|-----------6--4---------------------------6--4-------------------------|
A|-----------------7--4---------------------------7--4-------------------|
E|0----------------------7--4----0----------------------7--4----0--------|
 |
E|----------------------------------|
B|-9-xx-xx-9-xx-xx-9-9---9----------|
G|-9-xx-xx-9-xx-xx-9-9---9----------|
D|-9-xx-xx-9-xx-xx-9-9---9----------|
A|-7-xx-xx-7-xx-xx-7-7---7----------|
E|----------------------------------|


Verse
   A long time ago…
E|----------------------------------|
B|-9-xx-xx-9-xx-xx-9-9---9----------|
G|-9-xx-xx-9-xx-xx-9-9---9----------|
D|-9-xx-xx-9-xx-xx-9-9---9----------|
A|-7-xx-xx-7-xx-xx-7-7---7----------|
E|----------------------------------|
   You are my daughter
E|-(5)-------------------------------------------|
B|-(5)--------5-----------5-----------5----------|
G|-(7)------7---7-------7---7-------7------------|
D|-(7)----7-------7---7-------7---7--------------|
A|-(5)--5-----------5-----------5----------------|
E|-----------------------------------------------|
   
Than maybe we've got something to talk about
E|-(7)-----------------------------7-------------------------------------|
B|-(7)-----------7-------------------7-----------------------------------|
G|-(8)---------8---8------------8------8---------------------------------|
D|-(9)-------9-------9--------9----------9-------------------------------|
A|-(9)-----9-----------9----9--------------------------------------------|
E|-(7)---7----------------7----------------------------------------------|
        
Pre-Chorus:
Guitar one plays the chords listed above the tab, and the second one does the riff

    E
e|------0------0-----0-----0-----0-----0-----0-----0--|
B|----0-----0-----0-----0-----0-----0-----0-----0-----|
G|--6-----6-----6-----6-----6-----6-----6-----6-------|
D|----------------------------------------------------|
A|----------------------------------------------------|
E|----------------------------------------------------|

   A
e|------0------0-----0-----0-----0-----0-----0-----0--|
B|----0-----0-----0-----0-----0-----0-----0-----0-----|
G|--6-----6-----6-----6-----6-----6-----6-----6-------|
D|----------------------------------------------------|
A|----------------------------------------------------|
E|----------------------------------------------------|

  E
e|------0------0-----0-----0-----0-----0-----0-----0--|
B|----0-----0-----0-----0-----0-----0-----0-----0-----|
G|--6-----6-----6-----6-----6-----6-----6-----6-------|
D|----------------------------------------------------|
A|----------------------------------------------------|
E|----------------------------------------------------|

  E
e|------0------0-----0-----0-----0-----0-----0-----0--|
B|----0-----0-----0-----0-----0-----0-----0-----0-----|
G|--6-----6-----6-----6-----6-----6-----6-----6-------|
D|----------------------------------------------------|
A|----------------------------------------------------|
E|----------------------------------------------------|
   
   B                                A
e|------------------------------------0-----0-----0----0-|
B|------7----0---7-----7---0----7----0-----0-----0----0--|
G|--8--6---8---6---8--6---8---6-----6-----6-----6----6---|
D|-------------------------------------------------------|
A|-------------------------------------------------------|
E|-------------------------------------------------------|

   E
e|------0------0-----0-----0-----0-----0-----0-----0--|
B|----0-----0-----0-----0-----0-----0-----0-----0-----|
G|--6-----6-----6-----6-----6-----6-----6-----6-------|
D|----------------------------------------------------|
A|----------------------------------------------------|
E|----------------------------------------------------|

Chorus:
Guitar One-
   Up on the sun…           There’s an ocean…
e|---------------------------------------------------|
B|---------------------------------------------------|
G|--9-9---9-9---9-9---9-9---7-7---7-7---7-7---7-7----|
D|--9-9---9-9---9-9---9-9---7-7---7-7---7-7---7-7----|
A|--7-7---7-7---7-7---7-7---5-5---5-5---5-5---5-5----|
E|---------------------------------------------------|
 |
e|-----7-----7-----7-----7-----5-----5-----5-----5---|
B|----7-----7-----7-----7-----5-----5-----5-----5----|
G|---9-----9-----9-----9-----7-----7-----7-----7-----|
D|--9-----9-----9-----9-----7-----7-----7-----7------|
A|---------------------------------------------------|
E|---------------------------------------------------|


B                   E        A
Not too much more / Too much more
B                   E        A
Not too much more / Too much more

The rest of the song is just the E Chord being repeated and then the Intro

so that's it! for suggestions/questions/spam/viruses:
i.m.bleach@gmail.com
Tap to rate this tab
 
# A B C D E F G H I J K L M N O P Q R S T U V W X Y Z