Song name
# A B C D E F G H I J K L M N O P Q R S T U V W X Y Z

Meat Puppets - We Dont Exist tab

MEAT PUPPETS We Don,t Exist

INTRO (Tremolo Pick Each Note)
--------------------------------------------------------|
--------------------------------------------------------|
--------------------------------------------------------|
-5h7-5h7-5h7-4h5-2h4-0h2---5h7-5h7-5h7-4h5-2h3-0h2------|
--------------------------------------------------------|
--------------------------------------------------------|

Pre - Verse
--------------------------------------------------------|
--------------------------------------------------------|
--------------------------------------------------------|
-5-7-7-7-7-5--------------------------------------------| Palm Mute
-5-7-7-7-7-5--------------------------------------------|
-5-5-5-5-5-5--------------------------------------------|

Verse
--------------------------------------------------------|
--------------------------------------------------------|
--------------------------------------------------------|
-5-7-5h7-7----------------------------------------------| Palm Mute
-5-7-5h7-7----------------------------------------------|
-5-5-5-5-5----------------------------------------------|

Pre- Chorus
--------------------------------------------------------|
--------------------------------------------------------|
--7h9-x-x-x-9---x-x-x-----------------------------------|
--7h9-x-x-x-9---x-x-x-----------------------------------|
------x-x-x-----x-x-x-----------------------------------|
--------------------------------------------------------|

Chorus
-0------------3-------2----------|
-2------------3-------3----------|
-2------------0-------2----------|
-2---------0--0-------0----------|
-0---0-2-3----2------------------|
--------------3------------------|

Other Guitar
--------------3-------2----------|
----------------3-------3--------|
------------------0-------2------|
---------------------------------|
---------------------------------|
---------------------------------|

Ending (Tremolo Pick everything but last 3 chords)
--------------------------------------------------------|
--------------------------------------------------------|
-8h10-8h10-8h10-7h8-7h8-7h8-8h10-8h10-8h10-7h8-7h8-7h8--|
--------------------------------------------------------|
--------------------------------------------------------|
--------------------------------------------------------|

-------------------------------------------------------------|
-------------------------------------------------------------|
-8h10-8h10-8h10-7h8-7h8-7h8-8h10-8h10-8h10-10h12-11h13-13h15-| Do this one 
-------------------------------------------------------------| a few times.
-------------------------------------------------------------|
-------------------------------------------------------------|

--------------------------------------------------------|
--------------------------------------------------------|
-7h8 8h10-10h12-11h13-13h15-15h17-16h18--12-7-9---------|
-----------------------------------------12-7-9---------|
-----------------------------------------10-5-7---------|
--------------------------------------------------------|
Tap to rate this tab
 
# A B C D E F G H I J K L M N O P Q R S T U V W X Y Z