Song name
# A B C D E F G H I J K L M N O P Q R S T U V W X Y Z

Meat Puppets - Sometimes Blue tab

Intro and verse. I have not deciphered the chorus or solo yet.

Intro
e)-----------------------------------|
a)3-----3----------------------------|
d)--0-2---0-2-2----------------------|
g)--------------0--0-4-5-5-5-5-4-2-0-|
b)-----------------------------------|
e)-----------------------------------|

Verse
e)-------------------------------------|
a)3------------------------------------|
d)--0-2--0-2--0-2----------------------|
g)----------------0--0-4-5-5-5-5-4-2-0-|
b)-------------------------------------|
e)-------------------------------------|
Tap to rate this tab
# A B C D E F G H I J K L M N O P Q R S T U V W X Y Z