Song name
# A B C D E F G H I J K L M N O P Q R S T U V W X Y Z

Meat Puppets - Aurora Borealis tab

The main focus of this tablature is the main chords,
but a small effort has been made to give the reader a hint to how the
licks between chord changes are played. Any corrections, additions or
questions to this tab are welcomed in the comments section.

Capo on 1st fret. The tablature is written so that the frets are numbered
from where the capo is set. This means that in this tablature an open string is
written as a zero, even though the capo will actually be at the first fret.

Intro:

|-5--10p8------------0-------|
|-7--8---8h10p8------0-------|
|-7--10--------8-------------|
|-7--10----------8-----------|
|-5--8-----------------------|
|-5--8-------------0---------|

For the lick after the chord is played, hold the barre chord and use
your pinky.

Main riff:

|-3-3--5-5--13p11--------------5-----10p8------------0-0--|
|-5-5--7-7--11---11h13p11------7-----8---8h10p8------0-0--|
|-5-5--7-7--13-----------11----7-----10--------8----------|
|-5-5--7-7--13-------------11--7-----10----------8--------|
|-3-3--5-5--11-----------------5-----8--------------------|
|-3-3--5-5--11-----------------5-----8-------------0------|

Bridge:

|-0--0-----|
|-3--1-----|
|-0--0-----|
|-2--2-----|
|-2--3-----|
|-0--------|

These are just the main chords, use your pinky to play around these
chords to make minor 7ths, major 7ths and add9 chords.
Tap to rate this tab
 
# A B C D E F G H I J K L M N O P Q R S T U V W X Y Z