Song name
# A B C D E F G H I J K L M N O P Q R S T U V W X Y Z

Meat Puppets - Look At The Rain tab

-------------------------------------------------------------------------------
                            look at the rain - meat puppets
-------------------------------------------------------------------------------
Tabbed by: joshua st.louis
E-mail:pukeandpiss12@yahoo.com

Tuning: standard




INTRO D

D riff
been down the corner 'bout once or twice
D
i don't know but it's been nice
G
i ain't got no money i can't buy a damn thing
D riff
that i might like
A                             G
let's go down the dime store some moonless night
D                     G
and look at the rain  look at the rain
D                     G
look at the rain      look at the rain
D                     G
look at the rain      look at the rain
D                     G
look at the rain      look at the rain


i got a shirt that cost a dollar twenty-five
i know i'm the best dressed man alive
i put it on and head down to the local dive
to put the icing on extraordinary rides
when i leave i'm done i'm happy but insane
for i love the rain
i love the rain
i love the rain 
i love the rain

SOLO (if anyone knows this please post it)

i'm a messed up worn down torn up bag of trouble
i get right down in your hair 
got a real sharp pin with which to burst your bubble
this is trouble distribution and i'm giving you your share
won't tell you nothing baby 'cause that's my aim
but i look at the rain
i look at the rain
i look at the rain 
i look at the rain



bass intro  

G-------------------------------------------------------|
D-4444444444444------------------44444-77777------------|
A---------------5555555555555555-------------5555555555-|
E-------------------------------------------------------|

G-------------------------------------------7777777777-|
D-444444444444------------------44444-77777------------|
A--------------5555555555555555------------------------|
E------------------------------------------------------|

d riff (there may be a similar riff for some of the other chords
        it's hard to make out)

e|--------------|
B|----0-----0---|
G|-/2---2-2-----|
D|--------------|
A|--------------|
E|--------------|

bass during solo

G---------------------------------------------------------|
D---------------------------------------------------------|
A-55555555------------555555555---------------------------|
E----------5555555555-----------55555555555-5-7-888888888-|

G---------------------------------------------------------|
D---------------------------------------------------------|
A----------------------------------------------5555555555-|
E-8-7-55555555555-5-7-8888888888-8-7-5555555555-----------|




after solo lead

e|-7-5-------------|
B|-----7-5---5-7-^-|
G|---------7-------|
D|-----------------|
A|-----------------|
E|-----------------|




************************************

| /   slide up
| \   slide down
| h   hammer-on
| p   pull-off
| ~   vibrato
| +   harmonic
| x   Mute note
| b   Bend
| pb  Pre-bend
| br  Bend release
| pbr Pre-bend release
| brb Bend release bend

************************************
Tap to rate this tab
# A B C D E F G H I J K L M N O P Q R S T U V W X Y Z