Meat Puppets - Strings On Your Heart chords

Highlighted       Show chord diagrams
-------------------------------------------------------------------------------
                             strings on your heart - meat puppets
-------------------------------------------------------------------------------
Tabbed by: joshua st.louis
E-mail: pukeandpiss12@yahoo.com

Tuning: standard



INTRO: D
 
D      E  D     E   D     E  D    E
i see it, i get it, to find it below 
D      E     D       E  D      E     D   E
you know me, your fire, but i can't let go

PRE-CHORUS: (with riff)

D       E   D        E      D   E    D    E
beyond us, through canyons of motion we start
D      E  D       E      D      E       D     E
beyond us these motions emerge from the dark

CHORUS: (this riff is a variation on the intro only in the key of A.)

A
now i'm tied up in circles 
A
so i won't fall a part
A
tied up and tangled
A
strings on your heart


it's tied up in mystery surrounding your heart
it stumbles to finish before it can start
in silence through canyons of motion we start
beyond us these motions emerge from the dark

now i'm tied up in circles 
so i won't fall a part
tied up and tangled
strings on your heart


SOLO: B A (please post either solo if you know it)
INTRO: D  (with different lead)
SOLO: D E

i see it the emotions surrounding your heart
i get it to stumble before it can stop
beyond us through canyons of motion we start
beyond us through canyons emerge from the dark

now i'm tied up in circles 
so i won't fall a part
tied up and tangled
strings on your heart


INTRO

e|-------------------------------------------|
B|-------3-5-7-777H5-------10H12P10-10H12P10-|
G|-7-7----------------7-7--------------------|
D|-7-7----------------7-7--------------------|
A|-5-5----------------5-5--------------------|
E|-------------------------------------------|

e|---------------------------------------------|
B|-----3-5-7-77-7-5-3-------10H12P10-10/12/15--|
G|-7-7-----------------7-7---------------------|
D|-7-7-----------------7-7---------------------|
A|-5-5-----------------5-5---------------------|
E|---------------------------------------------|


PRE-CHORUS: this riff is based on this A major scale

e|-14-12-10--------------------------------------------|
B|----------14-12--------------------------------------|
G|----------------14-13-11-----------------------------|
D|-------------------------14-12-11--------------------|
A|----------------------------------14-12-11-----------|
E|-------------------------------------------14-12-10--|

Tap to rate this tab
 
# A B C D E F G H I J K L M N O P Q R S T U V W X Y Z