Song name
# A B C D E F G H I J K L M N O P Q R S T U V W X Y Z

Meat Puppets - Thats How It Goes tab

THAT`S HOW IT GOES
Tabben by: Halvor Wold
Album: Forbidden places
Written by: Curt Kirkwood
E-mail: wold.halvor@organizer.netThat's How It Goes
-----------------------

e---------------0--0--0----------------------|
B--2--2--0------5--5--5---2--2--0-----0--2---|
G--2--2--2--2---6--6--6---2--2--2--2--4--2---|
D--2--2--2--2---0--0--0---2--2--2--2--2--2---|
A--0--0--0--0-------------0--0--0--0--0--0---|
E--------------------------------------------|

Verse:

e-------------------------|
B--2---------------0------|
G--2---------------2--2---|
D--2---------------2--2---|
A--0---------------0--0---|
E-------------------------| x2

D - D

e-------------------------|
B--2---------------0------|
G--2---------------2--2---|
D--2---------------2--2---|
A--0---------------0--0---|
E-------------------------|

-VERSE-

CHORUS:
e----0----0----0----0-----|
B------3----3----3----3---|
G--2-----2----2----2------|
D--0-----0----0----0------|
A-------------------------|
E-------------------------|

e----0----0----0----0-----|
B------1----1----1----1---|
G--0-----0----0----0------|
D--2-----2----2----2------|
A-------------------------|
E-------------------------|

e----0----0----0----0-----|
B------3----3----3----3---|
G--2-----2----2----2------|
D--0-----0----0----0------|
A-------------------------|
E-------------------------|

e----0----0----0----0-----|
B------1----1----1----1---|
G--0-----0----0----0------|
D--2-----2----2----2------|
A-------------------------|
E-------------------------|

e----0----0----0----0-----|
B------3----3----3----3---|
G--2-----2----2----2------|
D--0-----0----0----0------|
A-------------------------|
E-------------------------|

-VERSE-

-CHORUS-

-SOLO-

-VERSE-

-VERSE(solo in the background)-

-VERSE with extra fill-ins-

ending chord: A
Tap to rate this tab
# A B C D E F G H I J K L M N O P Q R S T U V W X Y Z