Song name
# A B C D E F G H I J K L M N O P Q R S T U V W X Y Z

Medicine - Time Baby Ii tab

song: Time Baby II
band: Medicine

tabbed by: dammarcone@yahoo.com
note: this is my first tab so give me some feedback please

Tuning: Standard(E A D G B E)

the verse riff & intro
  E  E  E  E  E  E  E  Q   E  E  Q   Q   E    E  E  E  E  E  E  E  Q   E  E  Q  E  E  E
|-15----------15----14-----------12--14--12-|-15----------15----14-----------12-----------|
|----15----------15----15--12-15------------|----15----------15----15--12-15----15-12-----|
|-------14-12-------------------------------|-------14-12-----------------------------14--|
|-------------------------------------------|---------------------------------------------|
|-------------------------------------------|---------------------------------------------|
|-------------------------------------------|---------------------------------------------|

the chorus riff (I had to tweak the e.q. to hear this)
  E  E  E  Q   Q   E  E  E  E  E  E  E  E  E
|---------------------------------------------|
|---------------------------------------------|
|-------12-----12-----------------------------|
|----14---------------------------------------|
|-15-------14---------------------------12-14-|
|------------------12-13-13-13-15-15-15-------|

Duration Legend
---------------
Q - quarter; E - 8th;
Tap to rate this tab
# A B C D E F G H I J K L M N O P Q R S T U V W X Y Z