Song name
# A B C D E F G H I J K L M N O P Q R S T U V W X Y Z

Medina - The One tab

e---------------5----3-------------------5----3--------------|
B-----3----3--------------------3----3-----------------------|
G------------------------------------------------------------|
D--0----0---------0----0-------------------------------------|
A----------------------------3----3--------3-----3-----------|
E------------------------------------------------------------|

e-------------5----3--------------------5----3----------------|
B-----3---3-------------------3-----3-------------------------|
G-------------------------------------------------------------|
D-------------------------------------------------------------|
A---1---1-------1----1-----0-----0--------0----0--------------|
E-------------------------------------------------------------|
Tap to rate this tab
# A B C D E F G H I J K L M N O P Q R S T U V W X Y Z