Song name
# A B C D E F G H I J K L M N O P Q R S T U V W X Y Z

Meekal Hasan Band - Jhokrajan tab

hey guyz,this iz de intro of jhok rajan by meekal....

first part iz..

e|----------------------------------------------------------------------|
b|----------------------------------------------------------------------|
g|------4-------4-------4-------4---------4-------4-------4-------4-----|
d|----4---4---4---4---4---4---4---4-----4---4---4---4---4---4---4---4---|
a|--3---------------------------------3---------------------------------|
e|----------------------------------------------------------------------|


then comes..

e|----------------------------------------------------------------------|
b|----------------------------------------------------------------------|
g|------4-------4-------4-----4-------4-------4-------4-------4---------|
d|----4------4------4-------4---4---4---4---4---4---4---4---4---4-------|
a|----------------------------------------------------------------------|
e|--3------0------3-----------------------------------------------------| x2


then comes the BANG!!

Bsus    x    F#  F#  E E E E E    F#


thats all i kno!!
Tap to rate this tab
 
# A B C D E F G H I J K L M N O P Q R S T U V W X Y Z