Song name
# A B C D E F G H I J K L M N O P Q R S T U V W X Y Z

Meese - Next In Line tab

-------------------------------------------------------------------------------
			 Next In Line - Meese
-------------------------------------------------------------------------------
Tabbed by: Nick Farrell (Rockfan7)

Email: Movomoneo@yahoo.com

Tuning: Standard

Verses (You can play this or Dm F C)
e|----------------------------------------------|
B|6---6---6---6---6---6---6---6-----------------|
G|7---7---7---7---7---7---7---7----------5-5-5-5|
D|7---7---7---7---7---7---7---7----------5-5-5-5|
A|5---5---5---5---5---5---5---5---3--3-3-3-3-3-3|
E|--------------------------------1--1-1--------|
  ^          Staccato         ^

Repeat the staccato section then playe
e|--------------------------------------|
B|--------------------------------------|
G|----------5-5-5-5------------5-5-5-5--|
D|3--3-3----5-5-5-5--5--5-5----5-5-5-5--|
A|3--3-3----3-3-3-3xx5--5-5----3-3-3-3--| I'm not sure if the last note is C
E|1--1-1-------------3--3-3-------------| Or D.

^ Play both twice ^

Chorus

e|-----------------------------------------------------------------|
B|-----------------------------------------------------------------|
G|7-7---7-7-7---7-3-3---3---------5-5---5-5-5---5-3-3---3-5---5-5--|
D|7-7---7-7-7---7-3-3---3-3-3---3-5-5---5-5-5---5-3-3---3-5---5-5--|
A|5-5---5-5-5---5-1-1---1-3-3---3-3-3---3-3-3---3-1-1---1-3---3-3--|
E|------------------------1-1---1----------------------------------|

Play the Verse again then play chorus twice but on the second time don't do the pattern 
eights.

After that just play Dm then play the verse once and do the eighths chorus twice. I'm 
on the last part, but there were no tabs up for this song so I'll edit it in later :) help 
be appreciated. This is a great song have fun with it.

BTW if you have never heard of Meese here is there website www.meesemusic.com/
===============================================================================
Tap to rate this tab
 
# A B C D E F G H I J K L M N O P Q R S T U V W X Y Z