Song name
# A B C D E F G H I J K L M N O P Q R S T U V W X Y Z

Meet Me At Midnight - Days Are For Getting Through And Then Forgetting tab

h - Hammer on
p - Pull off
* - Palm mute
~ - Vibrato
^ - Pinched harmonic
t - Tremolo picking
tr- Trill

This is a great song by a local band from Leeds.

RIFF 1

Guitar 1
D#|--------------------------------------------------------------------|
A#|--------------------------------------------------------------------|
F#|--------------------------------------------------------------------|
C#|--------------------------------------------------------------------|
G#|-----5--7h8-8h10-7h8-5h7-7h8-5h7------------------------------------|
C#|-0-0----------------------------------------------------------------|
pm  * *

D#|--------------------------------------------------------------------|
A#|--------------------------------------------------------------------|
F#|--------------------------------------------------------------------|
C#|--------------------------------------------------------------------|
G#|-----5--7h8-8h10-7h8-5h7-4------------------------------------------|
C#|-0-0----------------------------------------------------------------|
pm  * *                     ~

D#|--------------------------------------------------------------------|
A#|--------------------------------------------------------------------|
F#|--------------------------------------------------------------------|
C#|--------------------------------------------------------------------|
G#|-----5--7h8-8h10-7h8-5h7-7h8-5h7------------------------------------|
C#|-0-0----------------------------------------------------------------|
pm  * *

D#|--------------------------------------------------------------------|
A#|--------------------------------------------------------------------|
F#|--------------------------------------------------------------------|
C#|--------------------------------------------------------------------|
G#|--------10-------8---7---4------------------------------------------|
C#|-0-0--0-----0-0----0---0--------------------------------------------|
pm  * *    ~                ~

D#|--------------------------------------------------------------------|
A#|--------------------------------------------------------------------|
F#|--------------------------------------------------------------------|
C#|----------------------12--------------------------------------------|
G#|--------------------------------------------------------------------|
C#|-8------------7-----------------------------------------------------|
pm  ~            ~       ^

Guitar 2
D#|--------------------------------------------------------------------|
A#|--------------------------------------------------------------------|
F#|--------------------------------------------------------------------|
C#|-----3--5h7-7h8--5h7-3h5-5h7-3h5------------------------------------|
G#|--------------------------------------------------------------------|
C#|-0-0----------------------------------------------------------------|
pm  * *

D#|--------------------------------------------------------------------|
A#|--------------------------------------------------------------------|
F#|--------------------------------------------------------------------|
C#|-----3--5h7-7h8--5h7-3h5-2------------------------------------------|
G#|--------------------------------------------------------------------|
C#|-0-0----------------------------------------------------------------|
pm  * *                     ~

D#|--------------------------------------------------------------------|
A#|--------------------------------------------------------------------|
F#|--------------------------------------------------------------------|
C#|-----3--5h7-7h8--5h7-3h5-5h7-3h5------------------------------------|
G#|--------------------------------------------------------------------|
C#|-0-0----------------------------------------------------------------|
pm  * *

D#|--------------------------------------------------------------------|
A#|--------------------------------------------------------------------|
F#|--------------------------------------------------------------------|
C#|--------8-------7---5---2-------------------------------------------|
G#|--------------------------------------------------------------------|
C#|-0-0--0-----0-0----0---0--------------------------------------------|
pm  * *    ~                ~

D#|--------------------------------------------------------------------|
A#|--------------------------------------------------------------------|
F#|--------------------------------------------------------------------|
C#|--------------------------------------------------------------------|
G#|--------------------------------------------------------------------|
C#|-8------------7-----------------------------------------------------|
pm  ~            ~

RIFF 2

Guitar 1
D#|--------------------------------------------------------------------|
A#|---------------------------------------14--16-----------------------|
F#|---------------------------------------17--19-----------------------|
C#|-0--0--0--0--------0-0-0--0--0--0-----------------------------------|
G#|-0--0--0--0--------0-0-0--0--0--0-----------------------------------|
C#|-0--0--0--0--------0-0-0--0--0--0-----------------------------------|
pm  *  *  *  *        * * *  *  *  *

D#|--------------------------------------------------------------------|
A#|--------------------------------------------------------------------|
F#|--------------------------------------------------------------------|
C#|-0--0--0--0--------7-7-7-5-5-5-8-8-8-3-3-3--------------------------|
G#|-0--0--0--0---------------------------------------------------------|
C#|-0--0--0--0---------------------------------------------------------|
pm  *  *  *  *        t t t t t t t t t t t t

Guitar 2
D#|--------------------------------------------------------------------|
A#|--------------------------------------------------------------------|
F#|---------------------------------------12---------------------------|
C#|-0--0--0--0--------0-0-0--0--0--0-----------------------------------|
G#|-0--0--0--0--------0-0-0--0--0--0-----------------------------------|
C#|-0--0--0--0--------0-0-0--0--0--0-----------------------------------|
pm  *  *  *  *        * * *  *  *  *       ^

D#|--------------------------------------------------------------------|
A#|--------------------------------------------------------------------|
F#|-------------------7-7-7-3-3-3-5-5-5-2-2-2--------------------------|
C#|-0--0--0--0---------------------------------------------------------|
G#|-0--0--0--0---------------------------------------------------------|
C#|-0--0--0--0---------------------------------------------------------|
pm  *  *  *  *        t t t t t t t t t t t t

D#|--------------------------------------------------------------------|
A#|--------------------------------------------------------------------|
F#|-7-7-7-3-3-3-5-5-5-2-2-2-7-7-7-3-3-3-5-5-5-2-2-2--------------------|
C#|--------------------------------------------------------------------|
G#|--------------------------------------------------------------------|
C#|--------------------------------------------------------------------|
pm  t t t t t t t t t t t t t t t t t t t t t t t t

RIFF 3

Guitar 1
D#|--------------------------------------------------------------------|
A#|--------------------------------------------------------------------|
F#|--------------------------------------------------------------------|
C#|--------------------------------------------------------------------|
G#|-5-5-5-5-7-7-8-8-3-3-3-3-7-7-8-8------------------------------------|
C#|--------------------------------------------------------------------|
pm  t t t t t t t t t t t t t t t t

D#|--------------------------------------------------------------------|
A#|--------------------------------------------------------------------|
F#|--------------------------------------------------------------------|
C#|-----------------8-8-7-7-5-5----------------------------------------|
G#|-5-5-5-5-7-7-8-8-------------8-8------------------------------------|
C#|--------------------------------------------------------------------|
pm  t t t t t t t t t t t t t t t t

D#|--------------------------------------------------------------------|
A#|--------------------------------------------------------------------|
F#|--------------------------------------------------------------------|
C#|--------------------------------------------------------------------|
G#|-5-5-5-5-7-7-8-8-3-3-3-3-7-7-8-8------------------------------------|
C#|--------------------------------------------------------------------|
pm  t t t t t t t t t t t t t t t t

D#|--------------------------------------------------------------------|
A#|--------------------------------------------------------------------|
F#|--------------------------------------------------------------------|
C#|-----------------8-7-5-7-5------------------------------------------|
G#|-5-5-5-5-7-7-8-8------8---8-7---------------------------------------|
C#|--------------------------------------------------------------------|
pm  t t t t t t t t

Guitar 2
D#|--------------------------------------------------------------------|
A#|--------------------------------------------------------------------|
F#|--------------------------------------------------------------------|
C#|--------------------------------------------------------------------|
G#|-5-5-5-5-7-7-8-8-3-3-3-3-7-7-8-8------------------------------------|
C#|--------------------------------------------------------------------|
pm  t t t t t t t t t t t t t t t t

D#|--------------------------------------------------------------------|
A#|--------------------------------------------------------------------|
F#|--------------------------------------------------------------------|
C#|-----------------8-8-7-7-5-5----------------------------------------|
G#|-5-5-5-5-7-7-8-8-------------8-8------------------------------------|
C#|--------------------------------------------------------------------|
pm  t t t t t t t t t t t t t t t t

D#|--------------------------------------------------------------------|
A#|--------------------------------------------------------------------|
F#|--------------------------------------------------------------------|
C#|--------------------------------------------------------------------|
G#|-5-5-5-5-7-7-8-8-3-3-3-3-7-7-8-8------------------------------------|
C#|--------------------------------------------------------------------|
pm  t t t t t t t t t t t t t t t t

D#|--------------------------------------------------------------------|
A#|--------------------------------------------------------------------|
F#|-----------------7-5-3---5-3----------------------------------------|
C#|-----------------------7-----7-5------------------------------------|
G#|-5-5-5-5-7-7-8-8----------------------------------------------------|
C#|--------------------------------------------------------------------|
pm  t t t t t t t t

Guitars 1&2
D#|--------------------------------------------------------------------|
A#|--------------------------------------------------------------------|
F#|--------------------------------------------------------------------|
C#|-0------------------------------------------------------------------|
G#|-0------------------------------------------------------------------|
C#|-0------------------------------------------------------------------|
pm

RIFF 4

Guitar 1
D#|--------------------------------------------------------------------|
A#|--------------------------------------------------------------------|
F#|--------------------------------------------------------------------|
C#|--------------------------------------------------------------------|
G#|-5----8--8p7-5----5----7---7h8p7------------------------------------|
C#|-0--0---0---------8--0---0------------------------------------------|
pm     *   *            *   *

D#|----------------------------|---------------------------------------|
A#|----------------------------|---------------------------------------|
F#|----------------------------|---------------------------------------|
C#|-----------------8-7-5-7-5--|-5-------------------------------------|
G#|-5----8--8p7-5------------8-|--8-7-8-7-5----------------------------|
C#|-0--0---0-------------------|---------------------------------------|
pm     *   *

Guitar 2
D#|--------------------------------------------------------------------|
A#|--------------------------------------------------------------------|
F#|--------------------------------------------------------------------|
C#|------7--7p5-3---------5---5h7p5------------------------------------|
G#|-5----------------5-------------------------------------------------|
C#|-0--0---0---------8--0---0------------------------------------------|
pm     *   *            *   *

D#|----------------------------|---------------------------------------|
A#|----------------------------|---------------------------------------|
F#|-----------------7-5-3-5-3--|---------------------------------------|
C#|------7--7p5-3------------7-|-3-------------------------------------|
G#|-5--------------------------|--7-5-7-5-3----------------------------|
C#|-0--0---0-------------------|---------------------------------------|
pm     *   *

RIFF 5

Guitar 1
D#|--------------------------------------------------------------------|
A#|--------------------------------------------------------------------|
F#|--------------------------------------------------------------------|
C#|-0-0---0-0---0-0---0-0---0-0---0-0----------------------------------|
G#|-0-0---0-0---0-0---0-0---0-0---0-0---8h10-7h8-5h7-4h5---------------|
C#|-0-0---0-0---0-0---0-0---0-0---0-0----------------------------------|
pm  * *   * *   * *   * *   * *   * *

D#|--------------------------------------------------------------------|
A#|--------------------------------------------------------------------|
F#|--------------------------------------------------------------------|
C#|-0-0---0-0---0-0---0-0---0-0---0-0------7h8-5h7-3-------------------|
G#|-0-0---0-0---0-0---0-0---0-0---0-0---7h8----------------------------|
C#|-0-0---0-0---0-0---0-0---0-0---0-0----------------------------------|
pm  * *   * *   * *   * *   * *   * *              ~

Guitar 2
D#|--------------------------------------------------------------------|
A#|--------------------------------------------------------------------|
F#|--------------------------------------------------------------------|
C#|-0-0----0-0----0-0----0-0-----0-0----0-0----------------------------|
G#|-0-0-8--0-0-7--0-0-8--0-0-10--0-0-8--0-0-7-8h10-7h8-5h7-4h5---------|
C#|-0-0----0-0----0-0----0-0-----0-0----0-0----------------------------|
pm  * *    * *    * *    * *     * *    * *

D#|--------------------------------------------------------------------|
A#|--------------------------------------------------------------------|
F#|--------------------------------------------------------------------|
C#|-0-0----0-0----0-0-10--0-0----0-0----0-0----7h8-5h7-3---------------|
G#|-0-0-8--0-0-7--0-0-----0-0-8--0-0-8--0-0-7-7h8----------------------|
C#|-0-0----0-0----0-0-----0-0----0-0----0-0----------------------------|
pm  * *    * *    * *     * *    * *    * *            ~

RIFF 6

Guitar 1
D#|--------------------------------------------------------------------|
A#|--------------------------------------------------------------------|
F#|--------------------------------------------------------------------|
C#|---------------------5h7--------------------------------------------|
G#|-----8--7-------8-7h8---------8--7-------8-8h10-7h8-----------------|
C#|-0-0--0-----0-0--0--------0-0--0-----0-0--0-------------------------|
pm  * *  * ~   * *  *        * *  * ~    * *  *

D#|--------------------------------------------------------------------|
A#|--------------------------------------------------------------------|
F#|--------------------------------------------------------------------|
C#|---------------------5h7--------------------------------------------|
G#|-----8--7-------8-7h8---------8--7---8h10-7h8-5h7-4h5---------------|
C#|-0-0--0-----0-0--0--------0-0--0------------------------------------|
pm  * *  * ~   * *  *        * *  * ~

Guitar 2
D#|--------------------------------------------------------------------|
A#|---------------------------10----8----------------------------------|
F#|---------------------------10----9----------------------------------|
C#|-0-------------------------8-----7----------------------------------|
G#|-0-------------------------8-----7----------------------------------|
C#|-0-------------------------8-----7----------------------------------|
pm

D#|--------------------------------------------------------------------|
A#|--------------------------------------------------------------------|
F#|---------------------4h5--------------------------------------------|
C#|-----7--5-------7-5h7---------7--5-------7-7h8-5h7------------------|
G#|--------------------------------------------------------------------|
C#|-0-0--0-----0-0--0--------0-0--0-----0-0--0-------------------------|
pm  * *  * ~   * *  *        * *  * ~   * *  *

D#|--------------------------------------------------------------------|
A#|--------------------------------------------------------------------|
F#|---------------------4h5--------------------------------------------|
C#|-----7--5-------7-5h7---------7--5---7h8-5h7-3h5-2h3----------------|
G#|--------------------------------------------------------------------|
C#|-0-0--0-----0-0--0--------0-0--0------------------------------------|
pm  * *  * ~   * *  *        * *  * ~

RIFF 7

Guitar 1 (Guitar 2 is silent)
D#|--------------------------------------------------------------------|
A#|--------------------------------------------------------------------|
F#|--------------------------------------------------------------------|
C#|-0-0-0-0-0-0-0-0-0-----0-0-0-0-0-0-0-0-0--0--0----------------------|
G#|-0-0-0-0-0-0-0-0-0-----0-0-0-0-0-0-0-0-0--0--0----------------------|
C#|-0-0-0-0-0-0-0-0-0-----0-0-0-0-0-0-0-0-0--0--0----------------------|
pm  * * * * * * * * *     * * * * * * * * *  *  *

RIFF 8

Guitar 1&2
D#|--------------------------------------------------------------------|
A#|--------------------------------------------------------------------|
F#|--------------------------------------------------------------------|
C#|-0-0-0-0-0-0-0-0-0-----0-0-0-0-0-0-0-0-0--0--0----------------------|
G#|-0-0-0-0-0-0-0-0-0-----0-0-0-0-0-0-0-0-0--0--0----------------------|
C#|-0-0-0-0-0-0-0-0-0-----0-0-0-0-0-0-0-0-0--0--0----------------------|
pm  * * * * * * * * *     * * * * * * * * *  *  *

D#|--------------------------------------------------------------------|
A#|--------------------------------------------------------------------|
F#|--------------------------------------------------------------------|
C#|-0-0-0-0-0-0-0-0-0-----0--0-0-0-0--3--------------------------------|
G#|-0-0-0-0-0-0-0-0-0-----0--0-0-0-0--3-4------------------------------|
C#|-0-0-0-0-0-0-0-0-0-----0--0-0-0-0--3--------------------------------|
pm  * * * * * * * * *     *  * * * *    ^

Guitars 1&2
D#|--------------------------------------------------------------------|
A#|--------------------------------------------------------------------|
F#|--------------------------------------------------------------------|
C#|-0------------------------------------------------------------------|
G#|-0------------------------------------------------------------------|
C#|-0------------------------------------------------------------------|
pm

RIFF 9

Guitar 1
D#|--------------------------------------------------------------------|
A#|--------------------------------------------------------------------|
F#|--------------------------------------------------------------------|
C#|--------------------------------------------------------------------|
G#|-------5-------7h8-4--------5-------8h10-7--------------------------|
C#|-0-0-0----0-0-0-------0-0-0----0-0-0--------------------------------|
pm  * * *    * * *       * * *    * * *

D#|--------------------------------------------------------------------|
A#|--------------------------------------------------------------------|
F#|--------------------------------------------------------------------|
C#|----------------------------8---------------------------------------|
G#|-------5-------7h8-4--------8--------5tr8-4tr7----------------------|
C#|-0-0-0----0-0-0-------0-0-0-8---0-0-0-------------------------------|
pm  * * *    * * *       * * *     * * *

Guitar 2
D#|--------------------------------------------------------------------|
A#|--------------------------------------------------------------------|
F#|--------------------------------------------------------------------|
C#|-------3-------5h7-2--------3-------7h8-5---------------------------|
G#|--------------------------------------------------------------------|
C#|-0-0-0----0-0-0-------0-0-0----0-0-0--------------------------------|
pm  * * *    * * *       * * *    * * *

D#|--------------------------------------------------------------------|
A#|--------------------------------------------------------------------|
F#|--------------------------------------------------------------------|
C#|-------3-------5h7-2--------8--------3tr7-2tr5----------------------|
G#|----------------------------8---------------------------------------|
C#|-0-0-0----0-0-0-------0-0-0-8---0-0-0-------------------------------|
pm  * * *    * * *       * * *     * * *

Then the song fades out.
Tap to rate this tab
 
# A B C D E F G H I J K L M N O P Q R S T U V W X Y Z