Song name
# A B C D E F G H I J K L M N O P Q R S T U V W X Y Z

Meg And Dia - Are There Giants Too In The Dance tab

-------------------------------------------------------------------------------
			     Giants - Meg & Dia
-------------------------------------------------------------------------------
Tabbed by: Lyka

I don't know the chords. I beleive it's in the key of C, correct me if I'm wrong.


Tuning: Standard

Intro:

e|-8-6---6-------------------------------------------------------------------|
B|-----8---8-6-8~------------------------------------------------------------|
G|---------------------------------------------------------------------------|
D|---------------------------------------------------------------------------|
A|---------------------------------------------------------------------------|
E|---------------------------------------------------------------------------|

Meg's Solo and other parts of the song

e|------------------------------------3--------------------------------------|
B|-8-6---6----8-6---6---------4---6-------6-4-6------------------------------|
G|-----8---5~------8---3~---5---5---5---5-------3----------------------------|
D|---------------------------------------------------------------------------|
A|---------------------------------------------------------------------------|
E|---------------------------------------------------------------------------|

After Meg's Solo
Chord Strummed

C
x 3 5 5 x x 



Dont' know after that!


===============================================================================
Tap to rate this tab
# A B C D E F G H I J K L M N O P Q R S T U V W X Y Z