Song name
# A B C D E F G H I J K L M N O P Q R S T U V W X Y Z

Meg And Dia - Teddy Loves Her tab

-----------------------------------------------------------------------------
                             Teddy Loves Her: Meg and Dia
-----------------------------------------------------------------------------
Tabbed by:
E-mail:WecnDowtever

Tuning: Standard

Guitar 1
e|---------------------------------------------------------------------------|
B|--4/17------17-15brb-10h13-15brb-10h13----15b15b15b15bh17------------------|
G|---------------------------------------------------------------------------|
D|---------------------------------------------------------------------------|
A|---------------------------------------------------------------------------|
E|---------------------------------------------------------------------------|

Guitar 2
e|---------------------11-1-11---11-1-11-------------------------------------|
B|-11-1-11---11-1-11---11-1-11---11-1-11-------------------------------------|
G|-22-2-22---22-2-22---22-2-22---22-2-22-------------------------------------|
D|-22-2-22---22-2-22---33-3-33---33-3-33-------------------------------------|
A|---------------------33-3-33---33-3-33-------------------------------------|
E|---------------------11-1-11---11-1-11-------------------------------------|
Tap to rate this tab
 
# A B C D E F G H I J K L M N O P Q R S T U V W X Y Z