Song name
# A B C D E F G H I J K L M N O P Q R S T U V W X Y Z

Meg Baird - Willie O Winsbury tab

standard tuning
capo 5 fret

chords : F C G Am



main pattern

E-------------------------------------------------------------|
B------1---1-------1---1-0-----1-----------0---0--------------|
G----2---2---2---2---2-------0---0---0---0---0---0-----0---0--|
A------3---3-------3---3-0-----2--0h2------0---0------0-------|
D--------------------------3-----------------------0h2--0h2---|
E--1-----------1-----------------------3----------------------|

E-------------------------------------------------------------|
B------1---1-------1---1-------1---1-------1---1-0------------|
G----2---2---2---2---2---2---2---2---2---2---2----------------|
A------3---3-------3---3-------3---3-------3---3-0------------|
D-------------------------------------------------------------|
E--1-----------1-----------1-----------1----------------------|

E-------------------------------------------------------------|
B------1---------1---------1-------------0---0-------0---0----|
G----0---0-----2---2-----0---0-----0---0---0---0---0---0---0--|
A------2---------2---------2---0h2-------0---0-------0---0----|
D--3-------320-------023-------------------------2------------|
E------------------------------------3------------------------|

E-------------------------------------------------------------|
B------1---1-------1---1-------1---1-------1---1--------------|
G----2---2---2---2---2---2---2---2---2---2---2---2------------|
A------3---3-------3---3-------3---3-------3---3--------------|
D-------------------------------------------------------------|
E--1-----------1-----------1-----------1----------------------|



Beautiful traditional song.


Meg Baird : 
http://www.megbaird.com/
http://www.myspace.com/pennsylvaniawildlife



tabbed by : rowanberry.nil@gmail.com
Tap to rate this tab
# A B C D E F G H I J K L M N O P Q R S T U V W X Y Z