Song name
# A B C D E F G H I J K L M N O P Q R S T U V W X Y Z

Megadeth - Captive Honor tab

#----------------------------------PLEASE NOTE---------------------------------#
#This file is the author's own work and represents their interpretation of the #
#song. You may only use this file for private study, scholarship, or research. #
#------------------------------------------------------------------------------#

CAPTIVE HONOR
As recorded by Megadeth
(From the 1992 Album COUNTDOWN TO EXTINCTION)

Transcribed by unregistered
	

Words by As Above Music by D. Mustaine, D. Ellefson, N. Menza & M. Friedman

Gtr I (E A D G B E) - 'Untitled'
Gtr II (E A D G B E) - 'Untitled'
Gtr III (E A D G B E) - 'Untitled'
Gtr IV (E A D G B E) - 'Untitled'

 Intro
  Q=75
 4/4
  Gtr I
  S S S S E S S  S  S S S S S T T S    S  S S S S S S S S S S S S S S S
|---------0---------------0---------|------------------------------------|
|-------------0-(0)-----0---0---0-0-|-(0)-------0------------------------|
|-------0---0---------0-------0-----|---------0---0---0-------0-------0--|
|-----2-----------------------------|-------7-------7-------2-------0----|
|---2---------------2---------------|-----7---------------3-------0------|
|-0--------------3------------------|--5----------------3-------2--------|
|
| Gtr II
| S S S S E S S  S  S S S E   S   S    S  S S S E   S S S S S S S S S S
|-----0---3---0-------0---3-------0-|-------0---3-----0---------------0--|
|-------0---0-----------0-----0-----|---------0-----0--------------------|
|---0---------------0---------------|-----0-------------------0----------|
|-2--------------2------------------|--2--------------------2-------0----|
|-----------------------------------|---------------------3-------0------|
|-----------------------------------|-------------------3-------2--------|


  S S S S E S S  S  S S S S S T T S    S  S S S S S S S S S S S S S S S
|---------0---------------0---------|-----------------------------------|
|-------------0-(0)-----0---0---0-0-|-(0)-------0-----------------------|
|-------0---0---------0-------0-----|---------0---0---0-------0-------0-|
|-----2-----------------------------|-------7-------7-------2-------0---|
|---2---------------2---------------|-----7---------------3-------0-----|
|-0--------------3------------------|--5----------------3-------2-------|
|
| S S S S E S S  S  S S S E   S   S    S  S S S E   S S S S S S S S S S
|-----0---3---0-------0---3-------0-|-------0---3-----0---------------0-|
|-------0---0-----------0-----0-----|---------0-----0-------------------|
|---0---------------0---------------|-----0-------------------0---------|
|-2--------------2------------------|--2--------------------2-------0---|
|-----------------------------------|---------------------3-------0-----|
|-----------------------------------|-------------------3-------2-------|


  S S S S E S S  S  S S S S S T T S    S  S S S S S S S S S S S S S S S
|---------0---------------0---------|-----------------------------------|
|-------------0-(0)-----0---0---0-0-|-(0)-------0-----------------------|
|-------0---0---------0-------0-----|---------0---0---0-------0-------0-|
|-----2-----------------------------|-------7-------7-------2-------0---|
|---2---------------2---------------|-----7---------------3-------0-----|
|-0--------------3------------------|--5----------------3-------2-------|
|
| S S S S E S S  S  S S S E   S   S    S  S S S E   S S S S S S S S S S
|-----0---3---0-------0---3-------0-|-------0---3-----0---------------0-|
|-------0---0-----------0-----0-----|---------0-----0-------------------|
|---0---------------0---------------|-----0-------------------0---------|
|-2--------------2------------------|--2--------------------2-------0---|
|-----------------------------------|---------------------3-------0-----|
|-----------------------------------|-------------------3-------2-------|


  S S S S E S S  S  S S S S S T T S    S  S S S S S S S S S S S S S S S
|---------0---------------0---------|-----------------------------------|
|-------------0-(0)-----0---0---0-0-|-(0)-------0-----------------------|
|-------0---0---------0-------0-----|---------0---0---0-------0-------0-|
|-----2-----------------------------|-------7-------7-------2-------0---|
|---2---------------2---------------|-----7---------------3-------0-----|
|-0--------------3------------------|--5----------------3-------2-------|
|
| S S S S E S S  S  S S S E   S   S    S  S S S E   S S S S S S S S S S
|-----0---3---0-------0---3-------0-|-------0---3-----0---------------0-|
|-------0---0-----------0-----0-----|---------0-----0-------------------|
|---0---------------0---------------|-----0-------------------0---------|
|-2--------------2------------------|--2--------------------2-------0---|
|-----------------------------------|---------------------3-------0-----|
|-----------------------------------|-------------------3-------2-------|


  S S S S S S S S S S S S S S S S   S S S S S S S S S S S S S S S S
|---------0-----------------------|---------0-----------------------|
|-----------0---0-----------------|-----------0---0-----------------|
|-------0-----0---------0-------0-|-------0-----0---------0-------0-|
|-----2---------------2-------0---|-----2---------------2-------0---|
|---2---------------2-------0-----|---2---------------2-------0-----|
|-0---------------3-------2-------|-0---------------3-------2-------|
|
| S S S S S S S S S S S S S S S S   S S S S S S S S S S S S S S S S
|---------0-----------------------|---------0-----------------------|
|-----------0---0-----------------|-----------0---0-----------------|
|-------0-----0---------0-------0-|-------0-----0---------0-------0-|
|-----2---------------2-------0---|-----2---------------2-------0---|
|---2---------------2-------0-----|---2---------------2-------0-----|
|-0---------------3-------2-------|-0---------------3-------2-------|


  S S S S S S S S S S S S S S S S   S S S S S S S S S S S S S S S S
|---------0-----------------------|---------0-----------------------|
|-----------0---0-----------------|-----------0---0-----------------|
|-------0-----0---------0-------0-|-------0-----0---------0-------0-|
|-----2---------------2-------0---|-----2---------------2-------0---|
|---2---------------2-------0-----|---2---------------2-------0-----|
|-0---------------3-------2-------|-0---------------3-------2-------|
|
| S S S S S S S S S S S S S S S S   S S S S S S S S S S S S S S S S
|---------0-----------------------|---------0-----------------------|
|-----------0---0-----------------|-----------0---0-----------------|
|-------0-----0---------0-------0-|-------0-----0---------0-------0-|
|-----2---------------2-------0---|-----2---------------2-------0---|
|---2---------------2-------0-----|---2---------------2-------0-----|
|-0---------------3-------2-------|-0---------------3-------2-------|


  S S S S S S S S S S S S S S S S   S S S S S S S S S S S S S S S S
|---------0-----------------------|---------0-----------------------|
|-----------0---0-----------------|-----------0---0-----------------|
|-------0-----0---------0-------0-|-------0-----0---------0-------0-|
|-----2---------------0-------4---|-----2---------------2-------2---|
|---2---------------3-------5-----|---2---------------2-------2-----|
|-0---------------3-------5-------|-0---------------3-------0-------|
|
| S S S S S S S S S S S S S S S S   S S S S S S S S S S S S E   E
|---------0-----------------------|-0-------0-----------------------|
|-----------0---0---------3-------|-----------0---0---------3---5---|
|-------0-----0---------0---0---0-|-------0-----0---------0---------|
|-----2---------------0-------4---|-----2---------------2-----------|
|---2---------------5-------------|---2---------------2-------------|
|-0---------------3---------------|-----------------3---------------|


  S S S S S S S S S S S S S S S S   S S S S S S S S S S S S S S S S
|---------0-----------------------|---------0-----------------------||
|-----------0---0-----------------|-----------0---0-----------------||
|-------3-----3---------0-------0-|-------0-----0---------0-------0-||
|-----4---------------0-------4---|-----2---------------2-------2---||
|---4---------------3-------5-----|---2---------------2-------2-----||
|-2---------------3-------5-------|-0---------------3-------0-------||
|
| H               Q       E   E     Q       S S S S S S S S q
|-2-------------------------------|-0-------0-----------------------||
|-------------------------3---5---|-----------0---0---------3-------||
|---------------------------------|-------------0---------0---------||
|---------------------------------|---------------------2-----------||
|---------------------------------|-------------------2-------------||
|---------------------------------|-----------------3---------------||


 Verdict's Conclusion
  Q=90
  Gtr III
  H    H      H    Q  Q    H    H      H    Q  Q
|-----------|------------|-----------|-------------|
|-----------|------------|-----------|-------------|
|-----------|------5-----|-----------|------5------|
|-4----3----|-2----5--5--|-4----3----|-2----5--5---|
|-4----3----|-2----3--5--|-4----3----|-2----3--5---|
|-2----1----|-0-------3--|-2----1----|-0-------3---|


  H    H      H    Q  Q    H    H      H    S S S S S S S S
|-----------|------------|-----------|-----------------------||
|-----------|------------|-----------|-----------------------||
|-----------|------5-----|-----------|-----------------------||
|-4----3----|-2----5--5--|-4----3----|-2---------------------||
|-4----3----|-2----3--5--|-4----3----|-2----3-2-0---2---0-2--||
|-2----1----|-0-------3--|-2----1----|-0----------2---2------||


  e S S E E E S S E E   e S S E E S S s s S S S S
|---------------------|---------------------------|
|---------------------|---------------------------|
|---------------------|---------------------------|
|-4-x-x-x-4-3-x-x-x-3-|-2-x-x-x-2-4S5-----4S5-x-x-|
|-4-x-x-x-4-3-x-x-x-3-|-2-x-x-x-2-2S3-----4S5-x-x-|
|-2-x-x-x-2-1-x-x-x-1-|-0-x-x-x-0-----0-0-2S3-x-x-|


  e S S E E E S S E E   e S S E E S S s s S S S S
|---------------------|---------------------------|
|---------------------|---------------------------|
|---------------------|---------------------------|
|-4-x-x-x-4-3-x-x-x-3-|-2-x-x-x-2-4S5-----4S5-x-x-|
|-4-x-x-x-4-3-x-x-x-3-|-2-x-x-x-2-2S3-----4S5-x-x-|
|-2-x-x-x-2-1-x-x-x-1-|-0-x-x-x-0-----0-0-2S3-x-x-|


  e S S E E E S S E E   e S S E E S S s s S S S S
|---------------------|---------------------------|
|---------------------|---------------------------|
|---------------------|---------------------------|
|-4-x-x-x-4-3-x-x-x-3-|-2-x-x-x-2-4S5-----4S5-x-x-|
|-4-x-x-x-4-3-x-x-x-3-|-2-x-x-x-2-2S3-----4S5-x-x-|
|-2-x-x-x-2-1-x-x-x-1-|-0-x-x-x-0-----0-0-2S3-x-x-|


  e S S E E E S S E E   e S S E E S S s s S S S S
|---------------------|---------------------------|
|---------------------|---------------------------|
|---------------------|---------------------------|
|-4-x-x-x-4-3-x-x-x-3-|-2-x-x-x-2-4S5-----4S5-x-x-|
|-4-x-x-x-4-3-x-x-x-3-|-2-x-x-x-2-2S3-----4S5-x-x-|
|-2-x-x-x-2-1-x-x-x-1-|-0-x-x-x-0-----0-0-2S3-x-x-|


  e e e e e e e e   e e e e e e e e
|-----------------|-----------------|
|-----------------|-----------------|
|-----------------|-----------------|
|-4---------------|-----------------|
|-4---------------|-----------------|
|-2-2-2-2-2-2-2-2-|-2-2-2-2-2-2-2-2-|


  e e e e e e e e   e e e e S S S S S S S S
|-----------------|--------------------------||
|-----------------|--------------------------||
|-----------------|--------------------------||
|-4---------------|--------------------------||
|-4---------------|---------3-2-0---2---0-2--||
|-2-2-2-2-2-2-2-2-|-2-2-2-2-------2---2------||


 Chorus
   E  S S T T  S   S  S E S S a  S   S  S S
|-------------------------------------------|
|-------------------------------------------|
|-------------------------------------------|
|--------------4--(4)---------3h=4---4------|
|-(4)-0-2-2s4-(4)--4--0-3-3-3---(3)-(3)-3-0-|
|--2----------------------------------------|


  E S S a  S   S  S S S S S S S S S S
|--------------------------------------|
|--------------------------------------|
|--------------------------------------|
|-------3h=4---4----------2-------4----|
|-2-2-2---(2)-(2)-2-----4-------6---5--|
|-------------------4-5-----5s7-----3--|


   E  S S T T  S   S  S E S S a  S   S  S S
|-------------------------------------------|
|-------------------------------------------|
|-------------------------------------------|
|--------------4--(4)---------3h=4---4------|
|-(4)-0-2-2s4-(4)--4--0-3-3-3---(3)-(3)-3-0-|
|--2----------------------------------------|


  E S S a  S   S  S S S S S S S S S S
|--------------------------------------||
|--------------------------------------||
|--------------------------------------||
|-------3h=4---4----------2-------4----||
|-2-2-2---(2)-(2)-2-----4-------6---5--||
|-------------------4-5-----5s7-----3--||


   Verse 1 & 2
        PM--------|   PM--------|
     e  s s s s s s e s s s s s s    e  s s s s s s S S S S S S S S
||--------------------------------|---------------------------------|
||o-------------------------------|---------------------------------|
||--------------------------------|-(4)-----------------------------|
||--(4)-------------3-------------|--4------------------------------|
||o--4--------------3-------------|--2--2-2-2-2-2-2-3-2-0---2---0-2-|
||---2--2-2-2-2-2-2-1-1-1-1-1-1-1-|-----------------------2---2-----|


      PM--------|   PM--------|
   e  s s s s s s e s s s s s s    e  s s s s s s S S S S S S S S
|-------------------------------|----------------------------------|
|-------------------------------|----------------------------------|
|-------------------------------|-(4)------------------------------|
|-(4)-------------3-------------|--4-------------------------------|
|--4--------------3-------------|--2--2-2-2-2-2-2-3-2-0---2---0-2--|
|--2--2-2-2-2-2-2-1-1-1-1-1-1-1-|-----------------------2---2------|


      PM--------|   PM--------|
   e  s s s s s s e s s s s s s    e  s s s s s s S S S S S S S S
|-------------------------------|----------------------------------|
|-------------------------------|----------------------------------|
|-------------------------------|-(4)------------------------------|
|-(4)-------------3-------------|--4-------------------------------|
|--4--------------3-------------|--2--2-2-2-2-2-2-3-2-0---2---0-2--|
|--2--2-2-2-2-2-2-1-1-1-1-1-1-1-|-----------------------2---2------|


      PM--------|   PM--------|
   e  s s s s s s e s s s s s s    e  s s s s s s S S S S S S S S
|-------------------------------|----------------------------------||
|-------------------------------|----------------------------------||
|-------------------------------|-(4)------------------------------||
|-(4)-------------3-------------|--4-------------------------------||
|--4--------------3-------------|--2--2-2-2-2-2-2-3-2-0---2---0-2--||
|--2--2-2-2-2-2-2-1-1-1-1-1-1-1-|-----------------------2---2------||


 Chorus
   E  S S T T  S   S  S E S S a  S   S  S S
|-------------------------------------------|
|-------------------------------------------|
|-------------------------------------------|
|--------------4--(4)---------3h=4---4------|
|-(4)-0-2-2s4-(4)--4--0-3-3-3---(3)-(3)-3-0-|
|--2----------------------------------------|


  E S S a  S   S  S S S S S S S S S S
|--------------------------------------|
|--------------------------------------|
|--------------------------------------|
|-------3h=4---4----------2-------4----|
|-2-2-2---(2)-(2)-2-----4-------6---5--|
|-------------------4-5-----5s7-----3--|


   E  S S T T  S   S  S E S S a  S   S  S S
|-------------------------------------------|
|-------------------------------------------|
|-------------------------------------------|
|--------------4--(4)---------3h=4---4------|
|-(4)-0-2-2s4-(4)--4--0-3-3-3---(3)-(3)-3-0-|
|--2----------------------------------------|
|
| Gtr IV
|  W
|-------------------------------------------|
|-------------------------------------------|
|-------------------------------------------|
|-------------------------------------------|
|-------------------------------------------|
|-------------------------------------------|


  E S S a  S   S  S S S S S S S  S S S
|---------------------------------------||
|---------------------------------------||
|---------------------------------------||
|-------3h=4---4----------2--------4----||
|-2-2-2---(2)-(2)-2-----4--------6---5--||
|-------------------4-5-----5s7------3--||
|
| H                   Q       E.     S
|---------------------------------------||
|---------------------------------------||
|---------------------------------------||
|---------------------------------------||
|---------------------------------------||
|------------------------------------3--||


 Guitar Solo I
  1.
  E   s s e e    S   s  S s S S S S   E   s s e   e S S  E  S S  E
|-----------------------------------|-------------------------------|
|-----------------------------------|-------------------------------|
|-------------------------------5-5-|-------------------------------|
|---------2-------------2---x-x-5-5-|---------2---------(5)-----(5)-|
|-4---4-4-0-2-----------0-0-x-x-3-3-|-4---4-4-0---2-x-x--5--x-x--5--|
|-2---------0-------(0)-------------|-2-----------0------3-------3--|
|
|             ~~~~~~
| S S S S E S S +E      S S S S E     S S S S S S E S S  E  S S  E
|-----------------------------------|-------------------------------|
|-----------------------------------|-------------------------------|
|-----------------------------------|-------------------------------|
|-------4-4-3-2-(2)-----------------|---------4-3-2------5-------5--|
|---------------------------5-4-3---|---------------x-x--5--x-x--5--|
|-2-2-2-----------------2-2---------|-2-2-2-2-------x-x-------------|


  E s s e   e  S   s  S s S S S  S    E     s s e   e   S  S   E  S S  E
|-----------------------------------|--------------------------------------|
|-----------------------------------|--------------------------------------|
|-----------------------------5--5--|--------------------------------------|
|-------2-------------2---x-x-5--5--|-----------2-------------(5)-----(5)--|
|-4-4-4-0---2---------0-0-x-x-3--3--|-4-----4-4-0---2---x--x---5--x-x--5---|
|-2---------0-----(0)---------------|-2-------------0----------3-------3---|
|
|           ~~~~~~                              PM--------|
|                                     |-3-|
| E S S S S E +S   S  S S S S S  S    S S S S S S S S S S  S   E  S S  E
|-----------------------------------|--------------------------------------|
|-----------------------------------|--------------------------------------|
|-----------------------------------|--------------------------------------|
|-------4-3-2-(2)--2----------------|--------------------------5-------5---|
|-------------------------5-4-3-[3]-|-2h3p2p0---2-0------------5-------5---|
|-2-2-2---------------2-2-----------|---------2-----2-0-2-(2)--3--x-x--3---|


  E s s e   e  S   s  S s S S S S   E s s e   e S S  E  S S  E
|---------------------------------|-----------------------------|
|---------------------------------|-----------------------------|
|-----------------------------5-5-|-----------------------------|
|-------2-------------2---x-x-5-5-|-------2---------(5)-----(5)-|
|-4-4-4-0---2---------0-0-x-x-3-3-|-4-4-4-0---2-x-x--5--x-x--5--|
|-2---------0-----(0)-------------|-2---------0------3-------3--|
|
|           ~~~~~~            ~               ~
| E S S S S E +E      S S S S E     E S S S S E S S  E  S S  E
|---------------------------------|-----------------------------|
|-------7-6-5-(5)-----------------|-------7-6-5------8-------8--|
|-------------------------7-6-5---|------------------7-------7--|
|-4-4-4---------------4-4---------|-4-4-4------------5-------5--|
|---------------------------------|-------------x-x-----x-x-----|
|---------------------------------|-------------x-x-----x-x-----|


  E s s e   e  S   s  S s S S S S
|---------------------------------|
|---------------------------------|
|-----------------------------5-5-|
|-------2-------------2---x-x-5-5-|
|-4-4-4-0---2---------0-0-x-x-3-3-|
|-2---------0-----(0)-------------|
|
|           ~~~~~~            ~
| E S S S S E +E      S S S S E
|---------------------------------|
|-------7-6-5-(5)-----------------|
|-------------------------7-6-5---|
|-4-4-4---------------4-4---------|
|---------------------------------|
|---------------------------------|


   E           s     s     e           e           S     S     E           S     S     E
|----------------------------------------------------------------------------------------------------||
|---------------------------------------------------------------------------------------------------o||
|----------------------------------------------------------------------------------------------------||
|--------------------------2----------------------------------(5)---------------------(5)------------||
|--4-----------4-----4-----0-----------2-----------x-----x-----5-----------x-----x-----5------------o||
|--2-----------------------------------0-----------------------3-----------------------3-------------||
|
|  T  T  T  T  T  T  T  T  T  T  T  T  T  T  T  T  T  T  T  T  T  T  T  T  T  T  T  T  T  T  T  T
|-14h19p14----14h19p14----14h19p14----14h19p14----14h19p14----14h19p14----14h19p14----14h19p14-------||
|----------17----------17----------17----------17----------17----------17----------17----------17---o||
|----------------------------------------------------------------------------------------------------||
|----------------------------------------------------------------------------------------------------||
|---------------------------------------------------------------------------------------------------o||
|----------------------------------------------------------------------------------------------------||


 Guitar Solo II
  2.
   E       s  s  e   e  S  s   S s  S S  S S
|--------------------------------------------|
|--------------------------------------------|
|----------------------------------------5-5-|
|----------------2-------------2----x-x--5-5-|
|--4-------4--4--0---2---------0-0--x-x--3-3-|
|--2-----------------0----(0)----------------|
|
|                ~~                 ~~
|  E      +E     E   E  S  S   E    E    e
|--------------------------------------------|
|-16pb17r(16)---14--------17--16---14--------|
|-16-----(16)---14--14----17--16---14--------|
|-------------------16----17--16---14---16---|
|------------------(16)----------------------|
|--------------------------------------------|


  E     s  s  e      e                 S  S  E      S S  E
|------------------------------------------------------------|
|------------------------------------------------------------|
|------------------------------------------------------------|
|-------------2-----------------------------(5)---------(5)--|
|-4-----4--4--0------2-----------------x--x--5------x-x--5---|
|-2------------------0-----------------------3-----------3---|
|
|             ~~~~~~                                ~~
| S  S  S  S  E     +T      +T   T  T  S  S  S   S  Q
|---------14-------------------------------------------------|
|------14----17b19r(17)b19r(17)p16p14----14------------------|
|---16--------------------------------16----17--16-14--------|
|------------------------------------------------------------|
|------------------------------------------------------------|
|------------------------------------------------------------|


   E    s    s  e    e     S  s     S    s  S S    S    S
|---------------------------------------------------------|
|---------------------------------------------------------|
|--------------------------------------------------5----5-|
|---------------2-------------------2-------x-x----5----5-|
|--4----4----4--0----2--------------0----0--x-x----3----3-|
|--2-----------------0-------(0)--------------------------|
|
|  |---3---|    |---3---|  |-----3-----|    |----3----|
|  E  E    E    E  E    E  E      E    E    E    E    E
|----17---16---14-----------------------------------------|
|----17---16---14-17---14-17-----16---14------------------|
|-----------------17---14-17-----16---14---16---14---16---|
|-17---------------------------------------16---14---16---|
|---------------------------------------------------------|
|---------------------------------------------------------|


   E    s    s  e    e     S S   E  S  S  E
|---------------------------------------------|
|---------------------------------------------|
|---------------------------------------------|
|---------------2---------------(5)------(5)--|
|--4----4----4--0----2-----x-x---5--x--x--5---|
|--2-----------------0-----------3--------3---|
|
|  |---3---|    |---3---|
|  E  E    E    E  E    E  S S   E  Q
|---------------------------------------------|
|---------------------------------------------|
|-15-14--------14-----------------------------|
|-15-14---16---14-16---15-14-x/--x\-x\--------|
|---------16------16---15-14-x/--x\-x\--------|
|---------------------------------------------|


   E    s s e e  S     s  S s S S S S
|-------------------------------------|
|-------------------------------------|
|---------------------------------5-5-|
|-----------2-------------2---x-x-5-5-|
|--4----4-4-0-2-----------0-0-x-x-3-3-|
|--2----------0-------(0)-------------|
|
|  Q.         E  Q.               E
|-14------------16--------------------|
|-17b19---------19b21-----------------|
|-------------------------------------|
|-------------------------------------|
|-------------------------------------|
|-------------------------------------|


   E    s s e e  S      S  E    S   S  E
|-------------------------------------------|
|-------------------------------------------|
|-------------------------------------------|
|-----------2-------------(5)---------(5)---|
|--4----4-4-0-2--x------x--5----x---x--5----|
|--2----------0------------3-----------3----|
|
|  Q.         E  Q             +E.        S
|-17------------19------------(19)----------|
|-20b22---------22pb24========(22)r---------|
|-------------------------------------------|
|-------------------------------------------|
|-------------------------------------------|
|-------------------------------------------|


   E            s  s       e       e            S  s       S    s  S       S    S S
|-----------------------------------------------------------------------------------|
|-----------------------------------------------------------------------------------|
|-------------------------------------------------------------------------------5-5-|
|--------------------------2-------------------------------2-------x-------x----5-5-|
|--4------------4--4-------0-------2-----------------------0----0--x-------x----3-3-|
|--2-------------------------------0--------------(0)-------------------------------|
|
|  S      +S    S  S      +S    S  S.     +T    S  S      +S    S  S      +S    E
|--------------24--------------24--------------24--------------24--------------24---|
|-24b26==(24)r----24b26==(24)r----24b26==(24)r----24b26==(24)r----24b26==(24)r------|
|-----------------------------------------------------------------------------------|
|-----------------------------------------------------------------------------------|
|-----------------------------------------------------------------------------------|
|-----------------------------------------------------------------------------------|


   E        s    s  e    e     S   S  E  S S  E
|--------------------------------------------------------||
|--------------------------------------------------------||
|--------------------------------------------------------||
|-------------------2----------------(5)-----(5)---------||
|--4--------4----4--0----2-----x---x--5--x-x--5----------||
|--2---------------------0------------3-------3----------||
|
|                              ~~~~
|  |-----3-----|    |---3---|
|  E      E    E    E  E    E  Q..                S
|-24b26==24---24---24-24---24-24r------------------------||
|------------------------------------------------17b19===||
|--------------------------------------------------------||
|--------------------------------------------------------||
|--------------------------------------------------------||
|--------------------------------------------------------||


    E.  S  S    S     S       S     E.          S  S    S     S       S
|--------------------------------------------------------------------------|
|--------------------------------------------------------------------------|
|--------------------------------------------------------------------------|
|---4---4--7s===5-------------------3--------------7s===5------------------|
|---4---4--7s===5-------------------3-----------3--7s===5-----4-------4----|
|---2---2--5s===3-----3-------3-----1-----------1--5s===3-----2-------2----|
|
|   ~~~~~                           ~~~~~~~~~~~~
|          |---3---|  |----3-----|                 |---3---|  |----3-----|
|  +Q      S  S    S  S     S    S  S      +E.     S  S    S  S     S    S
|---------14--------------------------------------14-----------------------|
|-(17)r------17p==14-------14---14-16b18==(16)r------17p==14-------14---14-|
|--------------------16b18-----------------------------------16b18---------|
|--------------------------------------------------------------------------|
|--------------------------------------------------------------------------|
|--------------------------------------------------------------------------|


                                            PM----------------------------|
   E.          S  S    S     S        S     S    S     e        S    S     e
|------------------------------------------------------------------------------------|
|------------------------------------------------------------------------------------|
|------------------------------------------------------------------------------------|
|--2-----------2-(7)------------------------5----4-----2-----------------------------|
|--2-----------2--7s===4-----2--------------3----2-----0--------5----4-----2---------|
|--0-----------0--5s===2-----0--------0-------------------------3----2-----0---------|
|
|          ~~~~~
|                 |---3---|                 |-------6--------|  |-------6--------|
|  E      +E      S  S    S  T     T  T  T  S  S    S  S  S  S  S  S    S  S  S  S
|----------------14---------------------15-15p12------------12-15p10-----------------|
|-16b17==(16)r------17p==14-------14-14------------13----13------------11----11------|
|---------------------------16b18---------------------12------------------12----12---|
|------------------------------------------------------------------------------------|
|------------------------------------------------------------------------------------|
|------------------------------------------------------------------------------------|


   E.       S   S   S              S   S  E.             S     S    S     S    S
|-----------------------------------------------------------------------------------|
|-----------------------------------------------------------------------------------|
|-----------------------------------------------------------------------------------|
|--4--------4---7s==5---------------------3--------------------7s===5---------------|
|--4--------4---7s==5---------------------3--------------3-----7s===5-----4----4----|
|--2--------2---5s==3--------------3---3--1--------------1-----5s===3-----2----2----|
|
|  ~~~
|                                         |--------6--------|  |--------6---------|
|  E   E       +S   T     +T      +S   S  S   S  S  S  S    S  S  S    S  S  S    S
|-----13b14r==(13)-13b14r(13)b14r(13)-13-14--13-------------------------------------|
|-----------------------------------------------17-16-15---14----14---15p14------14-|
|-11----------------------------------------------------------17------------17------|
|-----------------------------------------------------------------------------------|
|-----------------------------------------------------------------------------------|
|-----------------------------------------------------------------------------------|


                                              PM--------------------------------|
   E.             S     S    S     S    S     S    S     e        S        S     e
|--------------------------------------------------------------------------------------------|
|--------------------------------------------------------------------------------------------|
|--------------------------------------------------------------------------------------------|
|--2--------------2----(7)--------------------5----4-----2-----------------------------------|
|--2--------------2-----7s===4-----2----------3----2-----0--------5--------4-----2-----------|
|--0--------------0-----5s===2-----0----0-------------------------3--------2-----0-----------|
|
|  |--------6--------|  |--------6---------|  |-------6--------|
|  S   S  S  S  S    S  S  S    S  S  S    S  S  S    S  S  S  S  T     T  T  T  T  T  S
|-19--18-17-16-15---------19------19-----------------14-------------------------------17b19==|
|-------------------19-17------17----17s==14-15p14------14----14-------14-17p14-17p14--------|
|----------------------------------------------------------16----16b18-----------------------|
|--------------------------------------------------------------------------------------------|
|--------------------------------------------------------------------------------------------|
|--------------------------------------------------------------------------------------------|


    E.          S  S       S         S  S  E.                S  S    S S  S
|---------------------------------------------------------------------------|
|---------------------------------------------------------------------------|
|---------------------------------------------------------------------------|
|---4-----------4--7s======5---------------3--------------------7s===5------|
|---4-----------4--7s======5---------------3-----------------3--7s===5-4--4-|
|---2-----------2--5s======3---------3--3--1-----------------1--5s===3-2--2-|
|
|                                                               ~~~~~
|  +E      +E      S      +S   a  a  S  S  S   S       +S    S  E.        S
|-(17)b20-(17)r---17pb19r(17)-14h17-14----14--17------(17)--17-17-----------|
|--------------------------------------17-----17pb19==(17)r----17b19-----14-|
|---------------------------------------------------------------------------|
|---------------------------------------------------------------------------|
|---------------------------------------------------------------------------|
|---------------------------------------------------------------------------|


                                         PM---------------------|
   E.        S     S    S     S    S     S   S     e      S   S  e
|----------------------------------------------------------------------|
|----------------------------------------------------------------------|
|----------------------------------------------------------------------|
|--2---------2----(7)--------------------5---4-----2-------------------|
|--2---------2-----7s===4-----2----------3---2-----0------5---4--2-----|
|--0---------0-----5s===2-----0----0----------------------3---2--0-----|
|
|                                            ~~~~~~~~~~~~~~~~~
|                  |--------6---------|
|  E     +S.    T  S  S    S  S  S    S  S   S    +E     +E      S  S
|-17b19r(17)---14------------------------------------------------------|
|-17b19r(17)------17-14-----------------16----------------------14-----|
|-------------------------16-14------------[14]-([14])-([14])---14s10--|
|-------------------------------16---14--------------------------------|
|----------------------------------------------------------------------|
|----------------------------------------------------------------------|


  E.       S  S    S  S  S   E.     S  S  S  S  S
|-------------------------------------------------|
|-------------------------------------------------|
|-------------------------------------------------|
|-4--------4--7s===5---------3---------7s=5-------|
|-4--------4--7s===5---------3------3--7s=5--4--4-|
|-2--------2--5s===3--3--3---1------1--5s=3--2--2-|
|
|                            ~~~~
| S   E.      E       S  S   E   S  S  S  S  S  S
|-x--19b21---19b21---19-17------------------14----|
|-x------------------------[19]----12-13h14----14-|
|-------------------------------14----------------|
|-------------------------------------------------|
|-------------------------------------------------|
|-------------------------------------------------|


                                           PM-----------------------------|
   E.         S     S  S        S    S     S     S     e        S    S     e
|-------------------------------------------------------------------------------------||
|-------------------------------------------------------------------------------------||
|-------------------------------------------------------------------------------------||
|--2----------2----(7)---------------------5-----4-----2------------------------------||
|--2----------2-----7s=4--------2----------3-----2-----0--------5----4-----2----------||
|--0----------0-----5s=2--------0----0--------------------------3----2-----0----------||
|
|        |---3---|     |--3--|  |---3---|              |--3--|  |---3---|     |--3--|
|  E     S  S    S  S  T  T  T  S  S    S  T  T  T  T  S  S  S  S  S    S  s  T  T  T
|-------14------14-16-17-16p14h16------14---------------------------------------------||
|-17b19----17---------------------17------15h17p15p14-15----14------------------------||
|--------------------------------------------------------16----16-14------------------||
|----------------------------------------------------------------------16-14----------||
|----------------------------------------------------------------------------15p14----||
|----------------------------------------------------------------------------------17-||


 Out-Chorus
   E  S S T T  S   S  S E S S a  S   S  S S
|-------------------------------------------|
|-------------------------------------------|
|-------------------------------------------|
|--------------4--(4)---------3h=4---4------|
|-(4)-0-2-2s4-(4)--4--0-3-3-3---(3)-(3)-3-0-|
|--2----------------------------------------|
|
|  >
|  ~~~
|  H                    H
|-------------------------------------------|
|-------------------------------------------|
|-------------------------------------------|
|-------------------------------------------|
|-------------------------------------------|
|-14----------------------------------------|


  E S S a  S   S  S S S S S S S S S S
|--------------------------------------|
|--------------------------------------|
|--------------------------------------|
|-------3h=4---4----------2-------4----|
|-2-2-2---(2)-(2)-2-----4-------6---5--|
|-------------------4-5-----5s7-----3--|
|
| W
|--------------------------------------|
|--------------------------------------|
|--------------------------------------|
|--------------------------------------|
|--------------------------------------|
|--------------------------------------|


  Gtrs III, IV
   H     S S S S S S S S   E E Q  H
|------------------------|-------------*|
|------------------------|-------------*|
|-(3)--------------------|-------------*|
|--4---------------------|-4-----------*|
|--4-----3-2-0---2---0-2-|-4-----------*|
|--2-----------2---2-----|-2-----------*|



Duration Legend
---------------
W - whole; H - half; Q - quarter; E - 8th; S - 16th; T - 32nd; X - 64th; a - acciaccatura
+ - note tied to previous; . - note dotted; .. - note double dotted
Uncapitalized letters represent notes that are staccato (1/2 duration)
Irregular groupings are notated above the duration line
Duration letters will always appear directly above the note/fret number it represents the
duration for.  Duration letters with no fret number below them represent rests.  Multi-
bar rests are notated in the form Wxn, where n is the number of bars to rest for.  Low
melody durations appear below the staff

Tablature Legend
----------------
 h   - hammer-on
 p   - pull-off
 b   - bend
 pb  - pre-bend
 r   - bend release (if no number after the r, then release immediately)
 /\  - slide into or out of (from/to "nowhere")
 s   - legato slide
 S   - shift slide
 - natural harmonic
[n]  - artificial harmonic
n(n) - tapped harmonic
 ~   - vibrato
 tr  - trill
 T   - tap
 TP  - trem. picking
 PM  - palm muting
\n/  - tremolo bar dip; n = amount to dip
 \n  - tremolo bar down
 n/  - tremolo bar up
/n\  - tremolo bar inverted dip
 =   - hold bend; also acts as connecting device for hammers/pulls
 <> - volume swell (louder/softer)
 x   - on rhythm slash represents muted slash
 o   - on rhythm slash represents single note slash

Misc Legend
-----------
 |  - bar
||  - double bar
||o - repeat start
o|| - repeat end
*|  - double bar (ending)
 :  - bar (freetime)
 $  - Segno
 &  - Coda
Tempo markers -  = BPM(8/16=s8/s16), where s8 = swing 8ths, s16 = swing 16ths

Tap to rate this tab
 
# A B C D E F G H I J K L M N O P Q R S T U V W X Y Z