Song name
# A B C D E F G H I J K L M N O P Q R S T U V W X Y Z

Megadeth - Millennium Of The Blind tab

#----------------------------------PLEASE NOTE---------------------------------#
#This file is the author's own work and represents their interpretation of the #
#song. You may only use this file for private study, scholarship, or research. #
#------------------------------------------------------------------------------#

MILLENNIUM OF THE BLIND
As recorded by Megadeth
(From the 2004 Album YOUTHANASIA (REMASTERED))

Transcribed by Russ Elton (webmaster@abysslord.com), Jordan B. (sansamppsa1@hotmail.com)
	

Words by Dave Mustaine Music by Megadeth
Arranged by Dumpster510 & Russ Elton (webmaster@abysslord.com)

Gtr I (E A D G B E) - 'Dave Mustaine'
Gtr II (E A D G B E) - 'Marty Friedman'
Gtr III (E A D G B E) - 'Lead Guitar'
Gtr IV (E A D G B E) - 'Clean Guitar'

   Intro
    Q=132
    E5       F5        E5      BbA5G#G5
   4/4
    Gtr I
    PM-------------------------------|
    E E E E  E E E E   E E E E E E E E  4x
||-------------------|------------------||
||o------------------|-----------------o||
||-------------------|------------------||
||--9-9-9-9\---------|------------------||
||o-7-7-7-7\-3-3-3-3-|-2-2-2-2-8-7-6-5-o||
||-----------1-1-1-1-|-0-0-0-0-6-5-4-3--||
|
|   Gtr II
|   PM-------------------------------|
|   E E E E  E E E E   E E E E E E E E  4x
||-------------------|------------------||
||o------------------|-----------------o||
||-------------------|------------------||
||-------------------|------------------||
||o-2-2-2-2--3-3-3-3-|-2-2-2-2-8-7-6-5-o||
||--0-0-0-0--1-1-1-1-|-0-0-0-0-6-5-4-3--||


 Verse
  Q=130
  A5                N.C.          E5                N.C.
  Gtrs I, II
                    PM--------|                     PM--------|
                    |-3-| |-3-|                     |-3-| |-3-|
  W          +H     E E E E E E   W          +H     E E E E E E
|----------|--------------------|----------|--------------------|
|----------|--------------------|----------|--------------------|
|----------|--------------------|----------|--------------------|
|-2--------|-(2)----------------|----------|--------------------|
|-0--------|-(0)----3-2-1-------|-2--------|-(2)----3-2-1-------|
|----------|--------------3-2-1-|-0--------|-(0)----------3-2-1-|
  W


  B5                N.C.          F#5               N.C.
                    PM--------|                     PM--------|
                    |-3-| |-3-|                     |-3-| |-3-|
  W          +H     E E E E E E   W          +H     E E E E E E
|----------|--------------------|----------|--------------------|
|----------|--------------------|----------|--------------------|
|----------|--------------------|----------|--------------------|
|-4--------|-(4)----------------|----------|--------------------|
|-2--------|-(2)----3-2-1-------|-4--------|-(4)----3-2-1-------|
|----------|--------------3-2-1-|-2--------|-(2)----------3-2-1-|
  W


  D5                N.C.          A5                N.C.
                    PM--------|                     PM--------|
                    |-3-| |-3-|                     |-3-| |-3-|
  W          +H     E E E E E E   W          +H     E E E E E E
|----------|--------------------|----------|--------------------|
|----------|--------------------|----------|--------------------|
|----------|--------------------|----------|--------------------|
|-7--------|-(7)----------------|-2--------|-(2)----------------|
|-5--------|-(5)----3-2-1-------|-0--------|-(0)----3-2-1-------|
|----------|--------------3-2-1-|----------|--------------3-2-1-|
  W


  E5                N.C.          A5
                                 2/4
                    PM--------|
                    |-3-| |-3-|
  W          +H     E E E E E E   E E Q
|----------|--------------------|--------||
|----------|--------------------|--------||
|----------|--------------------|--------||
|----------|--------------------|-2------||
|-2--------|-(2)----3-2-1-------|-0------||
|-0--------|-(0)----------3-2-1-|--------||


 Guitar Solo (Mustaine)
  Am                      C           G
 4/4
  Gtr III
   ~~~~~~~~~~~~~~~~~       ~~~        ~~
   H.           +E  S S    Q.     S S Q.     E
|-----------------------|----------------------|
|-----------------------|----------------------|
|-------------------4-5-|--7------5-4--------4-|
|-/7------------(7)-----|-------------5--------|
|-----------------------|----------------------|
|-----------------------|----------------------|
|
| Gtr IV
|  E  E E E E E  E  E      E  E E S S E  E E E
|-----------0-----------|----------------------|
|---------1---1---------|----------------------|
|-------2--------2------|-------0------------0-|
|-----2-------------2---|-----2------------0---|
|--0--------------------|--3------2p0----2-----|
|-----------------------|-------------3--------|
|
| Gtrs I, II
|  >
|  W                      +W
|-----------------------|----------------------|
|-----------------------|----------------------|
|-----------------------|----------------------|
|--2--------------------|-(2)------------------|
|--0--------------------|-(0)------------------|
|-----------------------|----------------------|


  Dadd9/F#            F         E/Ab
  ~
  W                    E E  E E E E E E
|-------------------|-------------------|
|-------------------|-10----------------|
|-------------------|----9-10-7-9---7---|
|-7-----------------|-------------9---8-|
|-------------------|-------------------|
|-------------------|-------------------|
|
| E E E E E E E S S    E E  E E E E E E
|---------0---------|---------1-----0---|
|-----3-----3-------|-------1-----0-----|
|---2---2-----2-----|----2------1-------|
|---------------0h2-|--3----------------|
|-------------------|-----------------1-|
|-2-----------------|-------------------|
|
| W                    W
|-------------------|-------------------|
|-------------------|-------------------|
|-------------------|-------------------|
|-------------------|-------------------|
|-------------------|-------------------|
|-------------------|-------------------|


  Am                      C          G            Dadd9/F#
  ~~~~~~~~~~~~~~~~~~      ~~         ~~           ~~         ~~
  H.           +E   S S   Q.     S S Q.     S S   Q.     S S Q.     S S
|-----------------------|-----------------------|-----------------------|
|-----------------------|-----------------------|-7--------7-8------7-8-|
|-------------------4-5-|-7------5-7-9------7-9-|--------9--------------|
|-7------------(7)\-----|-----------------------|-----------------------|
|-----------------------|-----------------------|-----------------------|
|-----------------------|-----------------------|-----------------------|
|
| E  E E E E E  E   E     E  E E S S E  E E E     E  E E E   E  E E S S
|----------0------------|-----------------------|------------0----------|
|--------1---1----------|-----------------------|------3--------3-------|
|------2--------2-------|------0------------0---|----2---2--------2-----|
|----2--------------2---|----2------------0-----|-------------------0h2-|
|-0---------------------|-3------2p0----2-------|-----------------------|
|-----------------------|------------3----------|-2---------------------|


  F                E/Ab
   Q.         a  E  E     S  S       +S   S S  S
|-------------------------------------------8----|
|-10b13-----(10)---10pb13---10pb13==(10)r-----10-|
|------------------------------------------------|
|------------------------------------------------|
|------------------------------------------------|
|------------------------------------------------|
|
|  E    E E      E  E     E           E     E
|----------------1--------------------0----------|
|---------1---------------0-----------------0----|
|-------2-----------1----------------------------|
|--3---------------------------------------------|
|------------------------------------------------|
|------------------------------------------------|


  Gm
   ~~
   H        S  S  S S  S  S  S  S
|---------------------------------|
|-11-------10h11p10p8-11h13p11p10-|
|---------------------------------|
|---------------------------------|
|---------------------------------|
|---------------------------------|
|
|  E E E E  E     E    E     E
|-----------3---------------------|
|------3----------3----------3----|
|----3---3-------------3----------|
|--5------------------------------|
|---------------------------------|
|---------------------------------|


  Bb/F#   F5                     N.C.
   ~~~
              |---------------11:8-----------------|
   Q.      E  S  S  S    S  S  S     S  S  S    S  S
|---------10-13p11p10---13p11p10----11-13p11p==10-----|
|-11----------------------------------------------13--|
|-----------------------------------------------------|
|-----------------------------------------------------|
|-----------------------------------------------------|
|-----------------------------------------------------|
|
|  E  E E  E  E       E           E          E
|-----------------------------------------------------|
|-------3-------------6-------------------------------|
|-----3-------5---------------------------------------|
|--4-------3------------------------------------------|
|--------------------------------/8----------7--------|
|-----------------------------------------------------|


  Eb
                                                ~~~     PM-
   |------------------13:8-------------------|
   S  S  S  S    S  S  S    S  S  S    S  S  S  Q.      E
|-11p10----10---------------------------------------------|
|-------13------11p10------10h11-11p==10------------------|
|---------------------12-----------------12-11-12---------|
|------------------------------------------------------12-|
|---------------------------------------------------------|
|---------------------------------------------------------|
|
|  E          E          E          E           E  E E  E
|---------------------------------------------------------|
|-----------------------------------------------8---------|
|------------------------8-------------------------8------|
|-------------8---------------------8----------------8----|
|--6----------------------------------------------------4-|
|---------------------------------------------------------|


  D11
 ----------|
   E  E  E  E  E  E  E  E
|-------------------------|
|-------------------13-10-|
|----------------11-------|
|-13-12-13-10-12----------|
|-------------------------|
|-------------------------|
|
|  E  E  E  E  E  E  E  E
|--------------3----------|
|-----------3--------3----|
|--------5--------5-----3-|
|-----4-------------------|
|--5----------------------|
|-------------------------|


  Gm                      A5                Bb5                  N.C.
   ~~~~~~~~~~~~~~~~~~
   H.            +E   E    S  S  S  S  S  S  S  S  S  S  S  S  S  S  S  S
|--------------------10-|-13p11p10----10h11p10----10----------------------|
|-11------------(11)----|----------13----------13----13p11p10-13p11p10----|
|-----------------------|----------------------------------------------12-|
|-----------------------|-------------------------------------------------|
|-----------------------|-------------------------------------------------|
|-----------------------|-------------------------------------------------|
|
|  E  E E E E E   E   E    E     E     E     E     E     E     E     E
|-----------3-----------|-------------------------------------------------|
|-------3-----3-------3-|-------------------------------------------------|
|-----3---3-------3-----|-------------------------------------------------|
|--5--------------------|--------------7-----------------8----------------|
|-----------------------|--------7-----------------8-----------3-----5----|
|-----------------------|--5-----------------6----------------------------|


  Eb                        F7           D5
      ~~~~~~~~~~
   S  E.    +H.              H            H
|-------------------------|--------------10tr11-------|
|-10h11----(11)-----------|-10tr11--------------------|
|-------------------------|---------------------------|
|-------------------------|---------------------------|
|-------------------------|---------------------------|
|-------------------------|---------------------------|
|
|  E     E   E  E E E E E    E     E E E  E     E E E
|-------------------------|---------------------------|
|-----------------8-------|------------6--------------|
|------------8------8---8-|----------8------------7---|
|--------8------8-----8---|--------7------------7-----|
|--6----------------------|--8------------5-----------|
|-------------------------|-------------------------4-|


                                     Bridge
                                  Q=132
  C7               B7                 E5       F5        E5      BbA5G#G5
                                      Gtr I
                                      PM-------------------------------|
   Q       Q       Q       Q          E E E E  E E E E   E E E E E E E E  4x
|---------------------------------||-------------------|------------------||
|-10tr11---8tr10------------------||o------------------|-----------------o||
|------------------8tr10---7tr8---||-------------------|------------------||
|---------------------------------||--9-9-9-9\---------|------------------||
|---------------------------------||o-7-7-7-7\-3-3-3-3-|-2-2-2-2-8-7-6-5-o||
|---------------------------------||-----------1-1-1-1-|-0-0-0-0-6-5-4-3--||
|
|                                     Gtr II
|                                     PM-------------------------------|
|  E     E E     E E     E E    E     E E E E  E E E E   E E E E E E E E  4x
|---------------------------------||-------------------|------------------||
|----------------1----------------||o------------------|-----------------o||
|----------3---------------2------||-------------------|------------------||
|--------2---------------1--------||-------------------|------------------||
|--3---------------2--------------||o-2-2-2-2--3-3-3-3-|-2-2-2-2-8-7-6-5-o||
|-------------------------------1-||--0-0-0-0--1-1-1-1-|-0-0-0-0-6-5-4-3--||


   Outro
    Q=130
    E5   Bb5/F   A5/E N.C.               Bb5/F   A5/E N.C.
    Gtrs I, II
          ~~~~~~~~~   PM--------|         ~~~~~~~~~   PM--------|
                      |-3-| |-3-|                     |-3-| |-3-|
    H     H      H    E E E E E E   H     H      H    E E E E E E
||-------------|------------------|------------|--------------------||
||o------------|------------------|------------|-------------------o||
||-------------|------------------|------------|--------------------||
||-------/8----|-7----------------|------/8----|-7------------------||
||o-2----/8----|-7----3-2-1-------|-2----/8----|-7----3-2-1--------o||
||--0----------|------------3-2-1-|-0----------|------------3-2-1---||


       Bb5/F            A5/E           N.C.
  Gtr III
        ~~~~~~~~~~~~~~~~~~~~~~~~~~~~~~~
  H     Q.       +E      Q.       +E   H
|---------------------|----------------------------|
|------11-------(11)--|-10-------(10)--------------|
|------13b15====(13)r-|-12b14====(12)r-------------|
|---------------------|----------------------------|
|---------------------|----------------------------|
|---------------------|----------------------------|
|
| Gtrs I, II
|       ~~~~~~~~~~~~~~~~~~~~~~~        PM--------|
|                                      |-3-| |-3-|
| H     H                H             E E E E E E
|---------------------|----------------------------|
|---------------------|----------------------------|
|---------------------|----------------------------|
|------/8-------------|--7-------------------------|
|-2----/8-------------|--7-------------3-2-1-------|
|-0-------------------|----------------------3-2-1-|


       Bb5/F            A5/E           N.C.
        ~~~~~~~~~~~~~~~~~~~~~~~~~~~~~~~
  H     Q.       +E      Q.       +E   H
|---------------------|----------------------------|
|-------8--------(8)--|-10-------(10)--------------|
|------10b12====(10)r-|-12b14====(12)r-------------|
|---------------------|----------------------------|
|---------------------|----------------------------|
|---------------------|----------------------------|
|
|       ~~~~~~~~~~~~~~~~~~~~~~~        PM--------|
|                                      |-3-| |-3-|
| H     H                H             E E E E E E
|---------------------|----------------------------|
|---------------------|----------------------------|
|---------------------|----------------------------|
|------/8-------------|--7-------------------------|
|-2----/8-------------|--7-------------3-2-1-------|
|-0-------------------|----------------------3-2-1-|


       Bb5/F            A5/E           N.C.
        ~~~~~~~~~~~~~~~~~~~~~~~~~~~~~~~
  H     Q.       +E      Q.       +E   H
|---------------------|----------------------------|
|------11-------(11)--|-10-------(10)--------------|
|------13b15====(13)r-|-12b14====(12)r-------------|
|---------------------|----------------------------|
|---------------------|----------------------------|
|---------------------|----------------------------|
|
|       ~~~~~~~~~~~~~~~~~~~~~~~        PM--------|
|                                      |-3-| |-3-|
| H     H                H             E E E E E E
|---------------------|----------------------------|
|---------------------|----------------------------|
|---------------------|----------------------------|
|------/8-------------|--7-------------------------|
|-2----/8-------------|--7-------------3-2-1-------|
|-0-------------------|----------------------3-2-1-|


       Bb5/F            A5/E           G5
        ~~~~~~~~~~~~~~~~~~~~~~~~~~~~~~~~~~~~~~~~~~~~~~
  H     Q.       +E      Q.       +E    Q.       +E
|------10-------(10)--|-12-------(12)--15-------(15)--|
|------13b15====(13)r-|-15b17====(15)r-18b20====(18)r-|
|---------------------|-------------------------------|
|---------------------|-------------------------------|
|---------------------|-------------------------------|
|---------------------|-------------------------------|
|
|       ~~~~~~~~~~~~~~~~~~~~~~~
| H     H                H              H
|---------------------|-------------------------------|
|---------------------|-------------------------------|
|---------------------|-------------------------------|
|------/8-------------|--7----------------------------|
|-2----/8-------------|--7--------------5-------------|
|-0-------------------|-----------------3-------------|


  E5                                    F5
   W               +Q    +Q    +H       W           W
|-12------------|-(12)--(12)--(12)----|----------|--------|
|-15b17=========|=(15)--(15)r=(15)----|----------|--------|
|---------------|---------------------|----------|--------|
|---------------|---------------------|----------|--------|
|---------------|---------------------|----------|--------|
|---------------|---------------------|----------|--------|
|
|  W               +W                   W          +W
|---------------|---------------------|----------|--------|
|---------------|---------------------|----------|--------|
|---------------|---------------------|----------|--------|
|---------------|---------------------|----------|--------|
|--2------------|--(2)----------------|-3--------|-(3)----|
|--0------------|--(0)----------------|-1--------|-(1)----|


  F#5                     G5                      E5  F#5
  Gtrs I, II
  W          +W           W          +H.      +E  E   E E Q  H
|----------|------------|----------|----------------|-------------*|
|----------|------------|----------|----------------|-------------*|
|----------|------------|----------|----------------|-------------*|
|----------|------------|----------|----------------|-------------*|
|-4--------|-(4)--------|-5--------|-(5)------(5)-2-|-4-----------*|
|-2--------|-(2)--------|-3--------|-(3)------(3)-0-|-2-----------*|



Duration Legend
---------------
W - whole; H - half; Q - quarter; E - 8th; S - 16th; T - 32nd; X - 64th; a - acciaccatura
+ - note tied to previous; . - note dotted; .. - note double dotted
Uncapitalized letters represent notes that are staccato (1/2 duration)
Irregular groupings are notated above the duration line
Duration letters will always appear directly above the note/fret number it represents the
duration for.  Duration letters with no fret number below them represent rests.  Multi-
bar rests are notated in the form Wxn, where n is the number of bars to rest for.  Low
melody durations appear below the staff

Tablature Legend
----------------
 h   - hammer-on
 p   - pull-off
 b   - bend
 pb  - pre-bend
 r   - bend release (if no number after the r, then release immediately)
 /\  - slide into or out of (from/to "nowhere")
 s   - legato slide
 S   - shift slide
 - natural harmonic
[n]  - artificial harmonic
n(n) - tapped harmonic
 ~   - vibrato
 tr  - trill
 T   - tap
 TP  - trem. picking
 PM  - palm muting
\n/  - tremolo bar dip; n = amount to dip
 \n  - tremolo bar down
 n/  - tremolo bar up
/n\  - tremolo bar inverted dip
 =   - hold bend; also acts as connecting device for hammers/pulls
 <> - volume swell (louder/softer)
 x   - on rhythm slash represents muted slash
 o   - on rhythm slash represents single note slash

Misc Legend
-----------
 |  - bar
||  - double bar
||o - repeat start
o|| - repeat end
*|  - double bar (ending)
 :  - bar (freetime)
 $  - Segno
 &  - Coda
Tempo markers -  = BPM(8/16=s8/s16), where s8 = swing 8ths, s16 = swing 16ths

Tap to rate this tab
# A B C D E F G H I J K L M N O P Q R S T U V W X Y Z