Song name
# A B C D E F G H I J K L M N O P Q R S T U V W X Y Z

Megadeth - Dawn Patrol tab

Help us improve GuitareTab! Take a short survey!
Megadeth - Dawn Patrol


Tuning: Standard


Intro
e|-------|
B|-------|
G|-------|
D|-------|
A|-------|
E|--12\--|


Riff 1
e|---------------------------|
B|---------------------------|
G|---------------------------|
D|---------------------------|
A|-5h7---7--7-7-5h8---8--8-8-|
E|-----0------------0--------|

e|------------------------------|
B|------------------------------|
G|------------------------------|
D|--------------8h9-----7h8-----|
A|-5h7---7--7-7-----9\8-----8\7-|
E|-----0------------------------|

e|---------------------------|
B|---------------------------|
G|---------------------------|
D|---------------------------|
A|-5h7---7--7-7-5h8---8--8-8-|
E|-----0------------0--------|

1st ending:
e|---------------------------|
B|---------------------------|
G|-----------------------2-0-|
D|---------------------------|
A|-5h7---7--7\----0-2--------|
E|-----0--------------3------|

2nd ending:
e|---------------------------|
B|---------------------------|
G|---------------------------|
D|---------------------------|
A|-5h7---7--7\----3-2-0------|
E|-----0-------------------0-|


Remix/Remaster edition, a distortion guitar plays
this during the 2nd ending:
e|---------------------------|
B|---------------------------|
G|---------------------------|
D|----------------5-4-2------|
A|----------------3-2-0----2-|
E|-------------------------0-|




Notation:

10^        = bend a quarter step.
10b11      = bend a half step.
10b12      = bend a full step.
10b12r10   = bend and release.
[10]12     = pre-bend.
[10]12r10  = pre-bend and release.
{14}       = pick the 14th fret while holding the most 
             previous bend.
<17>       = touch the string above the 17th fret while 
             previous note(s) is(are) still ringing.

10b13*     = tremolo bar bend, from the 10th fret to the 13th fret.
7d4*       = tremolo bar dive, from the 7th fret to the 4th fret. 
12~*       = tremolo bar vibrato.

x   =  mute with fret-hand
*   =  palm mute
X\\ =  pick slide
h   =  hammer-on
p   =  pull-off
~   =  vibrato
t   =  finger tap
/   =  slide up
\   =  slide down
h.  =  natural harmonics
a   =  artificial harmonics
(9) =  ghost note
tm  =  trem picking
tr  =  trill
Related for Dawn Patrol tab