Song name
# A B C D E F G H I J K L M N O P Q R S T U V W X Y Z

Megadeth - Burning Bridges tab

#----------------------------------PLEASE NOTE---------------------------------#
#This file is the author's own work and represents their interpretation of the #
#song. You may only use this file for private study, scholarship, or research. #
#------------------------------------------------------------------------------#

BURNING BRIDGES
As recorded by Megadeth
(From the 2001 Album THE WORLD NEED A HERO)

Transcribed by Mahnraf
	

Words and Music by Dave Mustaine
Arranged by Megadeth

E5
2 2 x x x x
	
F5
3 3 x x x x
	
D5
0 0 x x x x
	
D#5
1 1 x x x x

Gtr I (D A D G B E) - 'Distortion'
Gtr II (D A D G B E) - 'Light distortion'
Gtr III (D A D G B E) - 'Gtr 3'
Gtr IV (D A D G B E) - 'Gtr 4'
Gtr V (D A D G B E) - 'Gtr 5'
Gtr VI (D A D G B E) - 'Gtr 6'

   Intro
    Moderately Q=110
    Em
   4/4
    Gtr I
    Q.     E +E  Q.      +Q.     E +E  E Q     Q.     E +E  Q.
||---------3-(3)-------|---------3-(3)-------|--------3-(3)-------|
||o-5------------5-----|-(5)-----------5s6s==|=5------------5-----|
||---------------------|---------------------|--------------------|
||---------------------|---------------------|--------------------|
||o--------------------|---------------------|--------------------|
||---------------------|---------------------|--------------------|
|
|   Gtr II
|   E  E E E +E  Q   E    E  E E E +E  Q   E   E  E E E +E  Q   E
||---------------------|---------------------|--------------------|
||o--------8-(8)-------|---------8-(8)-------|--------8-(8)-------|
||-------9-------9-----|-------9-------9-----|------9-------9-----|
||-----9-------------9-|-----9-------------9-|----9-------------9-|
||o-7------------------|--7------------------|-7------------------|
||---------------------|---------------------|--------------------|


  +Q.     E +E  Q.       a  Q.     E +E  Q.      +Q.     E +E  E Q
|---------3-(3)-------|------------1-(1)-------|---------1-(1)-------|
|-(5)-----------5-----|-(5)s3------------3-----|-(3)-----------3s6s==|
|---------------------|------------------------|---------------------|
|---------------------|------------------------|---------------------|
|---------------------|------------------------|---------------------|
|---------------------|------------------------|---------------------|
|
|  E  E E E +E  Q   E       E  E E E +E  Q   E    E  E E E +E  Q   E
|---------------------|------------------------|---------------------|
|---------8-(8)-------|------------6-(6)-------|---------6-(6)-------|
|-------9-------9-----|----------7-------7-----|-------7-------7-----|
|-----9-------------9-|--------8-------------8-|-----8-------------8-|
|--7------------------|------------------------|---------------------|
|---------------------|-----6------------------|--6------------------|


                      1.                      2.
  Q.     E +E  Q.      +Q.     E +E  E Q        Q.     E  E  Q.
|--------3-(3)-------|---------3-(3)--------||---------3--3--------||
|-5------------5-----|-(5)-----------5s6---o||-(5)-----------5-----||
|--------------------|----------------------||---------------------||
|--------------------|----------------------||---------------------||
|--------------------|---------------------o||---------------------||
|--------------------|----------------------||---------------------||
|
| E  E E E +E  Q   E    E  E E E +E  Q   E      E  E E E +E  Q   E
|--------------------|----------------------||---------------------||
|--------8-(8)-------|---------8-(8)-------o||---------8-(8)-------||
|------9-------9-----|-------9-------9------||-------9-------9-----||
|----9-------------9-|-----9-------------9--||-----9-------------9-||
|-7------------------|--7------------------o||--7------------------||
|--------------------|----------------------||---------------------||


  Slower Q=82
 2/4       4/4
  Gtrs III, IV
            PM--------------------------------------------------------------|
  E E E E   S S S S S S S S S S S S S S S S   S S S S S S S S S S S S S S S S
|---------|---------------------------------|---------------------------------|
|---------|---------------------------------|---------------------------------|
|---------|---------------------------------|---------------------------------|
|---------|---------------------------------|---------------------------------|
|-2---2---|-2-2---2-2-2---2-2-2-------------|-2-2---2-2-2---2-2-2-------------|
|-2---2---|-2-2---2-2-2---2-2-2---2-5-4-3-5-|-2-2---2-2-2---2-2-2---2-5-4-3-5-|


    PM------------------------------------------|
    S S S S S S S S S S S S S S S S   S S S S S S E  Q  Q
||----------------------------------|----------------------|
||o---------------------------------|----------------------|
||----------------------------------|----------------------|
||----------------------------------|----------------0--3--|
||o-2-2---2-2-2---2-2-2-------------|-2-2---2-2-2----0--3--|
||--2-2---2-2-2---2-2-2---2-5-4-3-5-|-2-2---2-2-2-x\-0--3--|


  PM--------------------------------------------------------------|
  S S S S S S S S S S S S S S S S   S S S S S S S S S S S S S S S S
|---------------------------------|---------------------------------|
|---------------------------------|---------------------------------|
|---------------------------------|---------------------------------|
|---------------------------------|---------------------------------|
|-2-2---2-2-2---2-2-2-------------|-2-2---2-2-2---2-2-2-------------|
|-2-2---2-2-2---2-2-2---2-5-4-3-5-|-2-2---2-2-2---2-2-2---2-5-4-3-5-|


  E5                                E5             D5 F5
  PM------------------------------------------|
  S S S S S S S S S S S S S S S S   S S S S S S E  Q  Q
|---------------------------------|-----------------------||
|---------------------------------|-----------------------||
|---------------------------------|-----------------------||
|---------------------------------|----------------0--3---||
|-2-2---2-2-2---2-2-2-------------|-2-2---2-2-2----0--3---||
|-2-2---2-2-2---2-2-2---2-5-4-3-5-|-2-2---2-2-2-x\-0--3---||


 Pre-Chorus
  Double-time feel Q=82
  E5
  Gtr III
  S  S   S   S   S   S  S  S   S  S  S  S  S  S  S   S
  |  |       |   |   |     |   |  |     |  |  |      |
  /  /       /   /   /     /   /  /     /  /  /      /

  Gtr IV
  S  S   S   S   S   E     S   S  S  S  S  S  S  S   S
|-------------------------------------------------------|
|-------------------------------------------------------|
|-------------------------------------------------------|
|-------------------------------------------------------|
|---------------------------------------2---------------|
|---[2]-[2]-[2]-[2]-[2]---[2]-[2]---[2]---[2]---[2]-[2]-|


  F5                            D5          D#5
  S S  S   S    S    S   S   S  S S  S   S  S S  S  S
  | |      |    |    |       |  | |      |  | |     |
  / /      /    /    /       /  / /      /  / /     /

  E    S   S   +S    S   S   S  E    S   S  E    S  S
|-----------------------------------------------------|
|-----------------------------------------------------|
|-----------------------------------------------------|
|-----------------------------------------------------|
|-----------------------------------------------------|
|-----[3]-[3]-([3])-[3]-[3]-[3]-----[0]-[0]-----[1]-x-|


  E5
  S S S S S S S  S   S   S   S   S   S   S   S   S
  | |   | | |    |   |   |       |   |   |       |
  / /   / / /    /   /   /       /   /   /       /

  Q       E   S  S   S   S   S   S   S   S   S   S
|---------------------------------------------------|
|---------------------------------------------------|
|---------------------------------------------------|
|-------------2-------------------------------------|
|---------------------------------------------------|
|---------------[2]-[2]-[2]-[2]-[2]-[2]-[2]-[2]-[2]-|


  F5                            D5            D#5
  S S  S   S    S    S   S   S  S  S   S   S   S   S   S   S
  | |      |    |    |       |  |  |       |   |   |       |
  / /      /    /    /       /  /  /       /   /   /       /

  E    S   S   +S    S   S   S  S  S   S   S   S   S   S   S
|-------------------------------------------------------------|
|-------------------------------------------------------------|
|-------------------------------------------------------------|
|-------------------------------------------------------------|
|-------------------------------------------------------------|
|-----[3]-[3]-([3])-[3]-[3]-[3]---[0]-[0]-[0]-[1]-[1]-[1]-[1]-|


  E5
   S   S   S   S  S  S  S  S  S  S   S   S   S   S   S   S
   |   |       |  |  |     |  |  |       |   |   |       |
   /   /       /  /  /     /  /  /       /   /   /       /

   S   S   S   S  S  S  S  S  S  S   S   S   S   S   S   S
|-----------------------------------------------------------|
|-----------------------------------------------------------|
|-----------------------------------------------------------|
|-----------------------------------------------------------|
|-----------------------------------------------------------|
|-[2]-[2]-[2]-[2]---[2]---[2]---[2]-[2]-[2]-[2]-[2]-[2]-[2]-|


  F5                    D5      D#5
   S   S   S  S S S S S S S S S S S  S  S
   |   |      | | |   | | |   | | |     |
   /   /      / / /   / / /   / / /     /

   S   S   S  S S S S S S S S S S S  S  S
|-----------------------------------------|
|-----------------------------------------|
|-----------------------------------------|
|---------[3]-------3-------0-------[1]---|
|-----------------------------------------|
|-[3]-[3]-----3---3---3-0-0---0-1-1-----1-|


  E5
  S S S S S S S S S S  S   S   S   S   S   S
  | |   | | |   | | |      |   |   |       |
  / /   / / /   / / /      /   /   /       /

  S S S S S S S S S S  S   S   S   S   S   S
|---------------------------------------------|
|---------------------------------------------|
|---------------------------------------------|
|-----2---------2-----------------------------|
|---------------------------------------------|
|-2-2---2-2-2-2---2-2-[2]-[2]-[2]-[2]-[2]-[2]-|


  F5                          D5          D#5
   S   S   S  S  S   S   S  S  S   S  S S  S   S   S   S
   |   |      |  |   |      |  |   |    |  |   |       |
   /   /      /  /   /      /  /   /    /  /   /       /

   S   S   S  S  S   S   S  S  S   S  S S  S   S   S   S
|---------------------------------------------------------||
|---------------------------------------------------------||
|---------------------------------------------------------||
|-------------------------------------0-------------------||
|---------------------------------------------------------||
|-[3]-[3]-[3]---[3]-[3]-[3]---[0]-[0]-----[1]-[1]-[1]-[1]-||


 Interlude
  Gtr III
  S S S S S S S S S S S S S S S S   S S S S S S S S S S S S S S E
|---------------------------------|--------------------------------|
|---------------------------------|--------------------------------|
|---------------------------------|--------------------------------|
|-----4---------5-------4-------5-|-----4---------5-------4-----7--|
|---------------------------------|-----------------------------7--|
|-2h4---4---2h5-----2h4---4-2-5---|-2h4---4---2h5-----2h4---4-2-7--|


  S S S S S S S S S S S S S S S S   S S S S S S S S S S S S S S E
|---------------------------------|--------------------------------|
|---------------------------------|--------------------------------|
|---------------------------------|--------------------------------|
|-----4---------5-------4-------5-|-----4---------5-------4-----7--|
|---------------------------------|-----------------------------7--|
|-2h4---4---2h5-----2h4---4-2-5---|-2h4---4---2h5-----2h4---4-2-7--|


              Chorus
 3/8          4/4
  Gtr IV
   Q.           Q     E.      S  +S  S  S S  S S  S S
|-----------||----------------------------------------|
|-----------||----------------------------------------|
|-----------||-/9-----7---------------------------7-6-|
|-----------||----------------9--(9)-9----9-10p9--9-8-|
|-----------||-------------------------10-------------|
|-----------||----------------------------------------|
|
| Gtr III
|                                                   ~~~
| +E  +Q        E S S S  S S  S  +S  S  S S  S S  S S
|-----------||----------------------------------------|
|-----------||----------------------------------------|
|-----------||----------------------------------------|
|-(7)-(7)\--||----5------7-----------9----9h10-9------|
|-(7)-(7)\--||-/7---7s9----9s10-(10)---10--------10-9-|
|-(7)-(7)\--||----------------------------------------|


   S  S S S S S S S +S  S S S S S  E
|--------------------------------------|
|--------------------------------------|
|--6------------6-5-(5)----------------|
|--8--8---8-9p8-8-7-(7)-7---7---7-/9\--|
|-------9-----------------8---8--------|
|--------------------------------------|
|
|~~~~~            ~~~~~~
| +S  S S S S S S S +S  S S S S S  E
|--------------------------------------|
|--------------------------------------|
|--------------------------------------|
|-----8---8-9-8---------7---7-9-7------|
|-(9)---9-------9-8-(8)---8--------8\--|
|--------------------------------------|


   Q     E.      S  +S  S  S S  S S  S S    S  S S S S S S S +S  S S S S S  E
|----------------------------------------|-------------------------------------|
|----------------------------------------|-------------------------------------|
|-/9-----7---------------------------7-6-|--6------------6-5-(5)---------------|
|----------------9--(9)-9----9-10p9--9-8-|--8--8---8-9p8-8-7-(7)-7---7---7-/9\-|
|-------------------------10-------------|-------9-----------------8---8-------|
|----------------------------------------|-------------------------------------|
|
|                                      ~~~~~~~~            ~~~~~~
|  E S S S  S S  S  +S  S  S S  S S  S S   +S  S S S S S S S +S  S S S S S  E
|----------------------------------------|-------------------------------------|
|----------------------------------------|-------------------------------------|
|----------------------------------------|-------------------------------------|
|----5------7-----------9----9h10-9------|-----8---8-9-8---------7---7-9-7-----|
|-/7---7s9----9s10-(10)---10--------10-9-|-(9)---9-------9-8-(8)---8--------8\-|
|----------------------------------------|-------------------------------------|


   Q     E.      S  +S  S  S S  S S  S S    S  S S S S S S S +S  S S S S S  E
|----------------------------------------|-------------------------------------|
|----------------------------------------|-------------------------------------|
|-/9-----7---------------------------7-6-|--6------------6-5-(5)---------------|
|----------------9--(9)-9----9-10p9--9-8-|--8--8---8-9p8-8-7-(7)-7---7---7-/9\-|
|-------------------------10-------------|-------9-----------------8---8-------|
|----------------------------------------|-------------------------------------|
|
|                                      ~~~~~~~~            ~~~~~~
|  E S S S  S S  S  +S  S  S S  S S  S S   +S  S S S S S S S +S  S S S S S  E
|----------------------------------------|-------------------------------------|
|----------------------------------------|-------------------------------------|
|----------------------------------------|-------------------------------------|
|----5------7-----------9----9h10-9------|-----8---8-9-8---------7---7-9-7-----|
|-/7---7s9----9s10-(10)---10--------10-9-|-(9)---9-------9-8-(8)---8--------8\-|
|----------------------------------------|-------------------------------------|


   Q     E.      S  +S  S  S S  S S  S S    S  S S S S S S S +S  S S S S S  E
|----------------------------------------|-------------------------------------|
|----------------------------------------|-------------------------------------|
|-/9-----7---------------------------7-6-|--6------------6-5-(5)---------------|
|----------------9--(9)-9----9-10p9--9-8-|--8--8---8-9p8-8-7-(7)-7---7---7-/9\-|
|-------------------------10-------------|-------9-----------------8---8-------|
|----------------------------------------|-------------------------------------|
|
|                                      ~~~~~~~~            ~~~~~~
|  E S S S  S S  S  +S  S  S S  S S  S S   +S  S S S S S S S +S  S S S S S  E
|----------------------------------------|-------------------------------------|
|----------------------------------------|-------------------------------------|
|----------------------------------------|-------------------------------------|
|----5------7-----------9----9h10-9------|-----8---8-9-8---------7---7-9-7-----|
|-/7---7s9----9s10-(10)---10--------10-9-|-(9)---9-------9-8-(8)---8--------8\-|
|----------------------------------------|-------------------------------------|


                                   1.
  Gtrs V, VI
                                             ~~~~~~~~~~~~~~~~~~~~~~~~~~
  H               S S S S S S S S   Q       +H.
|-----------------3-2---2-3-5-3---|-----------------------------------|
|-----------------5-4-3-4-5-7-5-5-|-4-------(4)-----------------------|
|---------------------5---------5-|-4---------------------------------|
|---------------------------------|-----------------------------------|
|---------------------------------|-----------------------------------|
|---------------------------------|-----------------------------------|
| H               S S S S S S S S   W
|
| Gtr III
|                                   PM---------------------------------
| S S S S S S S S S S S S S S S S   S S S S  S  S S S S S S S S S S S
|---------------------------------|-----------------------------------|
|---------------------------------|-----------------------------------|
|---------------------------------|-----------------------------------|
|---4-5-0-4-----5-----------------|-----------------------------------|
|-----------2s3-------------0-----|-2-2---2--2--2---2-2-2-------------|
|-----------------5-4-2-4-5---5-4-|-2-2---2--2--2---2-2-2---2-5-4-3-5-|


 ~~~~~
  +W
|------------------------------------||
|-(4)-------------------------------o||
|-(4)--------------------------------||
|------------------------------------||
|-----------------------------------o||
|------------------------------------||
| +W
|
|---------------------------------|
|  S  S S S S S S S S S S S S S S S
|------------------------------------||
|-----------------------------------o||
|------------------------------------||
|------------------------------------||
|--2--2---2-2-2---2-2-2-------------o||
|--2--2---2-2-2---2-2-2---2-5-4-3-5--||


 Guitar solo
  2.
  Gtr I
                             |-----6-----| |-----6-----|
  E.         S   Q           S S S  S S  S S S  S S  S S
|-2----------------------------------------8-7----7------|
|-4----------8---7-------------7-8-10-8-10-----10---10-8-|
|-4--------------------------9---------------------------|
|--------------------------------------------------------|
|--------------------------------------------------------|
|--------------------------------------------------------|
| W
|
| Gtr III
| PM------------------------------------------------------
| |-----6------| |----6----| |-----6-----| |-----6-----|
| S  S S S S   S S S S S S S S S S  S S  S S S  S S  S S
|--------------------------------------------------------|
|--------------------------------------------------------|
|--------------------------------------------------------|
|--------------------------------------------------------|
|--------------------------------------------------------|
|-2--2-2-2-2---2-2-2-2-2-2-2-2-2-2--2-2--2-2-2--2-2--2-2-|


                        |-3--| |-----6-----|  |----6----|
  E.         S   E     +E    S S S  S S  S S  S S S S S S
|----------------------------0-8p7----7----------------------|
|-7----------8---7-----(7)---------10---10-8-10-8-7-8-7------|
|-8----------9---8--------------------------------------9----|
|------------------------------------------------------------|
|------------------------------------------------------------|
|------------------------------------------------------------|
| E.         S   E      E      H
|
|-------------------------------------------------------|
| |-----6------| |-----6-----| |-----6-----|  |----6----|
| S  S S S S   S S S S  S  S S S S  S S  S S  S S S S S S
|------------------------------------------------------------|
|------------------------------------------------------------|
|------------------------------------------------------------|
|------------------------------------------------------------|
|------------------------------------------------------------|
|-2--2-2-2-2---2-2-2-2--2--2-2-2-2--2-2--2-2--2-2-2-2-2-2----|


                         |-3--|  |------6-------|  |------6-------|
  E.          S   E     +E    S  S  S  S  S  S  S  S  S  S  S  S  S
|-----------------------------0-12p11----11-------------------------|
|-------------------------------------13----13-12-13-12-10-12-10----|
|-8-----------9---8-----(8)--------------------------------------12-|
|-9----------10---9-------------------------------------------------|
|-------------------------------------------------------------------|
|-------------------------------------------------------------------|
| E.          S   E      E       H
|
| PM-----------------------------------------------------------------
| |------6------| |-----6-----|  |------6-------|  |------6-------|
| S  S S S S    S S S S  S  S S  S  S  S  S  S  S  S  S  S  S  S  S
|-------------------------------------------------------------------|
|-------------------------------------------------------------------|
|-------------------------------------------------------------------|
|-------------------------------------------------------------------|
|-------------------------------------------------------------------|
|-2--2-2-2-2----2-2-2-2--2--2-2--2--2--2--2--2--2--2--2--2--2--2--2-|


   |------6-------|  |-----6-----|  |----6-----| |-----6------|
   S  S  S  S  S  S  S  S S  S S S  S S S S S  S S  S S  S S  S
|---------------------------------------------------------------|
|-12-10----10---------------------------------------------------|
|-------12----12-11-12-11-9-11-9-8-11-9-8-9-8----8--------------|
|---------------------------------------------10---10-9-10-9----|
|------------------------------------------------------------12-|
|---------------------------------------------------------------|
|
|------------------------------------------------------------|
|  |------6-------|  |-----6-----|  |----6-----| |-----6------|
|  S  S  S  S  S  S  S  S S  S S S  S S S S S  S S  S S  S S  S
|---------------------------------------------------------------|
|---------------------------------------------------------------|
|---------------------------------------------------------------|
|---------------------------------------------------------------|
|---------------------------------------------------------------|
|--2--2--2--2--2--2--2--2-2--2-2-2--2-2-2-2-2--2-2--2-2--2-2--2-|


                                |-----6-----| |-----6-----|
   E.          S    Q           S S S  S S  S S S  S S  S S
|--2-----------3----2-------------------------8-7----7------|
|-12----------13---12-------------7-8-10-8-10-----10---10-8-|
|-------------------------------9---------------------------|
|-----------------------------------------------------------|
|-----------------------------------------------------------|
|-----------------------------------------------------------|
|  E.          S    Q           H
|
|  PM--------------------------------------------------------
|  |------6------|  |----6----| |-----6-----| |-----6-----|
|  S  S S S S    S  S S S S S S S S S  S S  S S S  S S  S S
|-----------------------------------------------------------|
|-----------------------------------------------------------|
|-----------------------------------------------------------|
|-----------------------------------------------------------|
|-----------------------------------------------------------|
|--2--2-2-2-2----2--2-2-2-2-2-2-2-2-2--2-2--2-2-2--2-2--2-2-|


                        |-3--| |-----6-----|  |----6----|
  E.         S   E     +E    S S S  S S  S S  S S S S S S
|----------------------------0-8-7----7----------------------|
|-7----------8---7-----(7)---------10---10-8-10-8-7-8-7------|
|-8----------9---8--------------------------------------9----|
|------------------------------------------------------------|
|------------------------------------------------------------|
|------------------------------------------------------------|
| E.         S   E      E      H
|
|-------------------------------------------------------|
| |-----6------| |-----6-----| |-----6-----|  |----6----|
| S  S S S S   S S S S  S  S S S S  S S  S S  S S S S S S
|------------------------------------------------------------|
|------------------------------------------------------------|
|------------------------------------------------------------|
|------------------------------------------------------------|
|------------------------------------------------------------|
|-2--2-2-2-2---2-2-2-2--2--2-2-2-2--2-2--2-2--2-2-2-2-2-2----|


                            |-3--|  |------6-------|  |------6-------|
   E.          S    E      +E    S  S  S  S  S  S  S  S  S  S  S  S  S
|-11----------12---11-----(11)---0-12p11----11-------------------------|
|----------------------------------------13----13-12-13-12-10-12-10----|
|-------------------------------------------------------------------12-|
|--9----------10----9--------------------------------------------------|
|----------------------------------------------------------------------|
|----------------------------------------------------------------------|
|  E.          S    E       E       H
|
|  PM-------------------------------------------------------------------
|  |------6------|  |-----6------|  |------6-------|  |------6-------|
|  S  S S S S    S  S S S   S  S S  S  S  S  S  S  S  S  S  S  S  S  S
|----------------------------------------------------------------------|
|----------------------------------------------------------------------|
|----------------------------------------------------------------------|
|----------------------------------------------------------------------|
|----------------------------------------------------------------------|
|--2--2-2-2-2----2--2-2-2---2--2-2--2--2--2--2--2--2--2--2--2--2--2--2-|


   |------6-------|  |-----6-----|  |----6-----| |-----6------|
   S  S  S  S  S  S  S  S S  S S S  S S S S S  S S  S S  S S  S
|---------------------------------------------------------------|
|-12-10----10---------------------------------------------------|
|-------12----12-11-12-11-9-11-9-8-11-9-8-9-8----8--------------|
|---------------------------------------------10---10-9-10-9----|
|------------------------------------------------------------12-|
|---------------------------------------------------------------|
|
|------------------------------------------------------------|
|  |------6-------|  |-----6-----|  |----6-----| |-----6------|
|  S  S  S  S  S  S  S  S S  S S S  S S S S S  S S  S S  S S  S
|---------------------------------------------------------------|
|---------------------------------------------------------------|
|---------------------------------------------------------------|
|---------------------------------------------------------------|
|---------------------------------------------------------------|
|--2--2--2--2--2--2--2--2-2--2-2-2--2-2-2-2-2--2-2--2-2--2-2--2-|


          |-----------------6------------------|         |-----------------6-----------------|         |-----------------6------------------|                 |----------3-----------|
   a     +S   S  a     +S   S  a      +T    T  S  a     +S   S  a     +S   S  a     +T    T  S  a     +S  S  a      +S    T  T  T  T  a  T  T  a     +E       T  a      +T    T   T  S
|------------14------------14-------------------------------14------------14------------------------------------------------------------------------------------------------------------|
|-17b19-(17)----17b19-(17)----17b19==(17)r(17)p0-17b19-(17)----17b19-(17)----17b19-(17)r(17)p0-17b19-(17)p0-17pb19-(17)-(17)p0----17-14h17p14-16b17-(16)-----16-16pb17-(16)r(16)p14-17--|
|------------------------------------------------------------------------------------------------------------------------------16-------------------------------------------------------|
|---------------------------------------------------------------------------------------------------------------------------------------------------------------------------------------|
|---------9-----------------------------------------------------------------------------------------------------------------------------------------------------------------------------|
|---------------------------------------------------------------------------------------------------------------------------------------------------------------------------------------|
|         W
|
|         PM------------------------------------------------------------------------------------------------------------------------------------------------------------------------|
|         |-----------------6------------------|         |-----------------6-----------------|         |----------------6----------------|            |--------------6---------------|
|         S   S         S   S          S       S         S   S         S   S         S       S         S  S          S    S     S        S            S  S S  S               S      S
|---------------------------------------------------------------------------------------------------------------------------------------------------------------------------------------|
|---------------------------------------------------------------------------------------------------------------------------------------------------------------------------------------|
|---------------------------------------------------------------------------------------------------------------------------------------------------------------------------------------|
|---------------------------------------------------------------------------------------------------------------------------------------------------------------------------------------|
|---------------------------------------------------------------------------------------------------------------------------------------------------------------------------------------|
|---------4---4---------4---4----------4-------4---------4---4---------4---4---------4-------4---------4--4----------4----4-----4--------4------------4--4-4--4---------------4------4--|


   |-------6-------|  |-------6--------|  |------6-------|  |------6-------|
   S   S  S  S  S  S  T  T  S  S S  S  S  S  S  S  S  S  S  S  S  S  S  S  S
|----------------------------------------------------------------------------|
|-17--16-14----16----14h16p14----0-------------------------------------------|
|-----------17----17----------17---17p16-14----16-14-------------------------|
|-------------------------------------------16-------16-14-------------------|
|-(9)-----------------7------------------------------------16-15-14-13-14-15-|
|----------------------------------------------------------------------------|
| +Q                  E          E        H
|
|  PM-------------------------------------------------------------------------
|  |-------6-------|  |-------6--------|  |------6-------|  |------6-------|
|  S   S  S  S  S  S  S     S  S S  S  S  S  S  S  S  S  S  S  S  S  S  S  S
|----------------------------------------------------------------------------|
|----------------------------------------------------------------------------|
|----------------------------------------------------------------------------|
|----------------------------------------------------------------------------|
|----------------------------------------------------------------------------|
|--5---5--5--5--5--5--5-----5--5-5--5--5--2--2--2--2--2--2--3--3--3--3--3--3-|


   ~~              ~~
          |--3--|                 |------6-------|  |------6-------|
   E      S  S  S  E      E       S  S  S  S  S  S  S  S  S  S  S  S
|-----------------------------------------------------------------------|
|--------------------------------------------------------17-15----------|
|--------------------------------------------14-16-17s18-------18-16----|
|--------------------------------------14-16----------------------------|
|-12--------------12-------------15h16----------------------------------|
|--------14-12-14--------14\--------------------------------------------|
|
|-----------------------------------------------------------------|
|  |-----6------|  |-----6-----|  |------6-------|  |------6-------|
|  S S S  S  S  S  S S S  S  S S  S  S  S  S  S  S  S  S  S  S  S  S
|-----------------------------------------------------------------------|
|-----------------------------------------------------------------------|
|-----------------------------------------------------------------------|
|-----------------------------------------------------------------------|
|-----------------------------------------------------------------------|
|--4-4-4--4--4--4--4-4-4--4--4-4--4--4--4--4--4--4--4--4--4--4--4--4----|


          |------------6------------|         |-----------6-----------|  |-------6-------|  |------6------|
   a     +S   S  S  a     +S    S   S  a     +S   S  S  a     +S   S  S  S  S  S  S  S   S  S  S  S  S  S S
|-----------------------------------------------------------------------14----16----17-----16----17----19---|
|------------14-17-------------------------------14-17------------14-17----14----14----/17----17----17----x-|
|-16b18-(16)-------16b18-(16)r(16)-14-16b18-(16)-------16b18-(16)-------------------------------------------|
|-----------------------------------------------------------------------------------------------------------|
|-----------------------------------------------------------------------------------------------------------|
|-----------------------------------------------------------------------------------------------------------|
|
|         PM----------------------------------------------------------------------------------------------|
|         |------------6------------|         |-----------6-----------|  |-------6-------|  |------6------|
|         S   S  S         S    S   S         S   S  S         S   S  S  S  S  S  S  S   S  S  S  S  S  S S
|-----------------------------------------------------------------------------------------------------------|
|-----------------------------------------------------------------------------------------------------------|
|-----------------------------------------------------------------------------------------------------------|
|-----------------------------------------------------------------------------------------------------------|
|-----------------------------------------------------------------------------------------------------------|
|---------5---5--5---------5----5---5---------5---5--5---------5---5--5--2--2--2--2--2---2--3--3--3--3--3-3-|


                                       ~~~~
                    |--3---|                         |------6-------|   |------6-------|
   a      +E       +E      S   a      +Q             S  S  S  S  S  S   S  S  S  S  S  S
|-19b21==(19)-----(19)r==(19)-19pb21-(19)-----------17-19-19-17-----------17-17----------|
|---------------------------------------------------------------19-17-/21-------19-19-19-|
|----------------------------------------------------------------------------------------|
|----------------------------------------------------------------------------------------|
|----------------------------------------------------------------------------------------|
|----------------------------------------------------------------------------------------|
|
|          PM-------------------------------------------------------------------------|
|          |-------6-------|           |----6-----|  |------6-------|   |------6-------|
|          S  S S   S  S   S           S  S S S S S  S  S  S  S  S  S   S  S  S  S  S  S
|----------------------------------------------------------------------------------------|
|----------------------------------------------------------------------------------------|
|----------------------------------------------------------------------------------------|
|----------------------------------------------------------------------------------------|
|----------------------------------------------------------------------------------------|
|----------4--4-4---4--4---4-----------4--4-4-4-4-4--4--4--4--4--4--4---4--4--4--4--4--4-|


   |--------6--------|  |------6-------|  |------6-------|  |--3--|  |---3----|
   T  T  S  S  S  S  S  S  S  S  S  S  a  S  S  S  S  S  S  S  S  S  E    S   S
|-16h17p16----16----------------------------------------------------------------|
|----------20----19-17-16-------16----------------------------------------------|
|-------------------------18-17----18-16s14----16-14----------------------------|
|-------------------------------------------16-------16----------14---------/14-|
|----------------------------------------------------------16p15----16\---------|
|-------------------------------------------------------17----------------------|
|
|  PM-----------------------------------------------------------------------|
|  |--------6--------|  |--------6--------|  |------6-------|  |------6-------|
|  S     S  S  S  S  S  S  S  S  S  S     S  S  S  S  S  S  S  S  S  S  S S   S
|-------------------------------------------------------------------------------|
|-------------------------------------------------------------------------------|
|-------------------------------------------------------------------------------|
|-------------------------------------------------------------------------------|
|-------------------------------------------------------------------------------|
|--5-----5--5--5--5--5--5--5--5--5--5-----5--2--2--2--2--2--2--3--3--3--3-3---3-|


                  ~~~~                   ~~~~
   |-3--|                |--3--|                |--3--|  |-3--|          |--3--|
   E    S  a     +E      S  S  S  a     +E      S  S  S  E    S  E       E     S
|-------------------------------------------------------16---17-14-----(14)------|
|------14-16b17-(16)----------14-17b19-(17)----------14-----------------------14-|
|--------------------------14---------------------14-----------------------------|
|-16---------------------x-------------------------------------------------------|
|--------------------------------------------------------------------------------|
|--------------------------------------------------------------------------------|
|
|  PM-----------------------------------------------------------------------------
|  |---------6---------| |---------6----------| |------6------|  |------6------|
|  S S  S         S  S S S  S  S         S  S S S  S  S  S S  S  S S S   S  S  S
|--------------------------------------------------------------------------------|
|--------------------------------------------------------------------------------|
|--------------------------------------------------------------------------------|
|--------------------------------------------------------------------------------|
|--------------------------------------------------------------------------------|
|--4-4--4---------4--4-4-4--4--4---------4--4-4-4--4--4--4-4--4--4-4-4---4--4--4-|


   |-------6-------|  |------6-------|
   S  S  S  S  S   S  S  S  S  S  S  S  a     +E.          S       +E.          S
|-14----16----17-----17----19----21----22b24-(22)r========22b24---(22)r========22b24------||
|----14----14----/17----17----17----19----------------------------------------------------||
|-----------------------------------------------------------------------------------------||
|-----------------------------------------------------------------------------------------||
|-----------------------------------------------------------------------------------------||
|-----------------------------------------------------------------------------------------||
|
|------------------------------------------------------------------------------------|
|  |-------6-------|  |------6-------|         |-------6--------|   |-------6--------|
|  S  S  S  S  S   S  S  S  S  S  S  S         S  S S S S       S   S  S S S S       S
|-----------------------------------------------------------------------------------------||
|-----------------------------------------------------------------------------------------||
|-----------------------------------------------------------------------------------------||
|-----------------------------------------------------------------------------------------||
|-----------------------------------------------------------------------------------------||
|--5--5--5--5--5---5--5--5--5--5--5--5---------2--2-2-2-2-------2---3--3-3-3-3-------3----||


 Chorus
  Gtr IV
   W
|-22b24-------------------------------------|
|-------------------------------------------|
|-------------------------------------------|
|-------------------------------------------|
|-------------------------------------------|
|-------------------------------------------|
|
| Gtr III
|  Q        E.      S  +S  S  S S  S S  S S
|-------------------------------------------|
|-------------------------------------------|
|-/9--------7---------------------------7-6-|
|-------------------9--(9)-9----9-10p9--9-8-|
|----------------------------10-------------|
|-------------------------------------------|
|
| Gtr I
|                                         ~~~
|  E    S S S  S S  S  +S  S  S S  S S  S S
|-------------------------------------------|
|-------------------------------------------|
|-------------------------------------------|
|-------5------7-----------9----9h10-9------|
|-/7------7s9----9s10-(10)---10--------10-9-|
|-------------------------------------------|


   +W
|-(22)b24---------------------------------|
|-----------------------------------------|
|-----------------------------------------|
|-----------------------------------------|
|-----------------------------------------|
|-----------------------------------------|
|
|   S     S S S S S S S +S  S S S S S  E
|-----------------------------------------|
|-----------------------------------------|
|---6---------------6-5-(5)---------------|
|---8-----8---8-9p8-8-7-(7)-7---7---7-/9\-|
|-----------9-----------------8---8-------|
|-----------------------------------------|
|
|~~~~~~~~~            ~~~~~~
|  +S     S S S S S S S +S  S S S S S  E
|-----------------------------------------|
|-----------------------------------------|
|-----------------------------------------|
|---------8---8-9-8---------7---7-9-7-----|
|--(9)------9-------9-8-(8)---8--------8\-|
|-----------------------------------------|


    Gtr III
     Q     E.      S  +S  S  S S  S S  S S
||-----------------------------------------|
||o----------------------------------------|
||--/9-----7---------------------------7-6-|
||-----------------9--(9)-9----9-10p9--9-8-|
||o-------------------------10-------------|
||-----------------------------------------|
|
|   Gtr IV
|                                        ~~~
|    E S S S  S S  S  +S  S  S S  S S  S S
||-----------------------------------------|
||o----------------------------------------|
||-----------------------------------------|
||-----5------7-----------9----9h10-9------|
||o-/7---7s9----9s10-(10)---10--------10-9-|
||-----------------------------------------|


   S  S S S S S S S +S  S S S S S  E    3x
|---------------------------------------||
|--------------------------------------o||
|--6------------6-5-(5)-----------------||
|--8--8---8-9p8-8-7-(7)-7---7---7-/9\---||
|-------9-----------------8---8--------o||
|---------------------------------------||
|
|~~~~~            ~~~~~~
| +S  S S S S S S S +S  S S S S S  E    3x
|---------------------------------------||
|--------------------------------------o||
|---------------------------------------||
|-----8---8-9-8---------7---7-9-7-------||
|-(9)---9-------9-8-(8)---8--------8\--o||
|---------------------------------------||


 Outro
                                    E5
  H               S S S S S S S S   W
|-----------------3-2---2-3-5-3-2-|------*|
|-----------------5-4-3-4-5-7-5---|-5----*|
|---------------------5---------5-|-4----*|
|---------------------------------|------*|
|---------------------------------|------*|
|---------------------------------|------*|
| H               S S S S S S S S
|
|                 PM------------|
| S S S S S S S S S S S S S S S S   W
|---------------------------------|------*|
|---------------------------------|------*|
|---------------------------------|------*|
|---4-5-0-4-----5-----------------|-2----*|
|-----------2-3-------------0-----|-2----*|
|-----------------5-4-2-4-5---5-4-|-2----*|



Duration Legend
---------------
W - whole; H - half; Q - quarter; E - 8th; S - 16th; T - 32nd; X - 64th; a - acciaccatura
+ - note tied to previous; . - note dotted; .. - note double dotted
Uncapitalized letters represent notes that are staccato (1/2 duration)
Irregular groupings are notated above the duration line
Duration letters will always appear directly above the note/fret number it represents the
duration for.  Duration letters with no fret number below them represent rests.  Multi-
bar rests are notated in the form Wxn, where n is the number of bars to rest for.  Low
melody durations appear below the staff

Tablature Legend
----------------
 h   - hammer-on
 p   - pull-off
 b   - bend
 pb  - pre-bend
 r   - bend release (if no number after the r, then release immediately)
 /\  - slide into or out of (from/to "nowhere")
 s   - legato slide
 S   - shift slide
 - natural harmonic
[n]  - artificial harmonic
n(n) - tapped harmonic
 ~   - vibrato
 tr  - trill
 T   - tap
 TP  - trem. picking
 PM  - palm muting
\n/  - tremolo bar dip; n = amount to dip
 \n  - tremolo bar down
 n/  - tremolo bar up
/n\  - tremolo bar inverted dip
 =   - hold bend; also acts as connecting device for hammers/pulls
 <> - volume swell (louder/softer)
 x   - on rhythm slash represents muted slash
 o   - on rhythm slash represents single note slash

Misc Legend
-----------
 |  - bar
||  - double bar
||o - repeat start
o|| - repeat end
*|  - double bar (ending)
 :  - bar (freetime)
 $  - Segno
 &  - Coda
Tempo markers -  = BPM(8/16=s8/s16), where s8 = swing 8ths, s16 = swing 16ths

Tap to rate this tab
 
# A B C D E F G H I J K L M N O P Q R S T U V W X Y Z