Song name
# A B C D E F G H I J K L M N O P Q R S T U V W X Y Z

Megadeth - Coming Home tab

#----------------------------------PLEASE NOTE---------------------------------#
#This file is the author's own work and represents their interpretation of the #
#song. You may only use this file for private study, scholarship, or research. #
#------------------------------------------------------------------------------#

COMING HOME
As recorded by Megadeth

Transcribed by abysslord (www.abysslord.com)
	

Words and Music by Dave Mustaine
Arranged by moto (manual_attack@hotmail.com)

B7/C
x 3 1 2 0 x
	
G
3 2 0 0 0 3
	
Gmaj9/F#
2 0 0 0 0 2
	
G9/F
1 0 0 0 0 1

E
0 2 2 1 0 0

Gtr I (E A D G B E) - 'Dave Mustaine Acoustic'
Gtr II (E A D G B E) - 'Dave Mustaine 12-String Octaves'
Gtr III (E A D G B E) - 'Al Pitrelli'
Gtr IV (E A D G B E) - 'Acoustic Solo Guitar'

 Intro
  Q=113
  N.C.
 4/4
  Gtrs I, II
   E E E E  E E E E   E E E E E E E E   E E E E E E E E   E E E E E E E E
|-------------------|-----------------|-----------------|-----------------|
|--------0--------0-|-------0-------0-|-------0-------0-|-------0-------0-|
|------0--------0---|-----0-------0---|-----0-------0---|-----0-------0---|
|----5--------5-----|---5-------5-----|---5-------5-----|---5-------5-----|
|-10-------10-------|-9-------9-------|-7-------7-------|-9-------9-------|
|-------------------|-----------------|-----------------|-----------------|


   E E E E  E E E E   E E E E E E E E   E E E E E E E E   E E E E E E E E
|-------------------|-----------------|-----------------|-----------------|
|--------0--------0-|-------0-------0-|-------0-------0-|-------0-------0-|
|------0--------0---|-----0-------0---|-----0-------0---|-----0-------0---|
|----5--------5-----|---5-------5-----|---5-------5-----|---5-------5-----|
|-10-------10-------|-9-------9-------|-7-------7-------|-6-------6-------|
|-------------------|-----------------|-----------------|-----------------|


 Intro Solo
  Gtrs I, II
   E E E E  E E E E    E   E E E E E E E
|-------------------|--------------------|
|--------0--------0-|----------0-------0-|
|------0--------0---|--------0-------0---|
|----5--------5-----|------5-------5-----|
|-10-------10-------|--9---------9-------|
|-------------------|--------------------|
|
| Gtr III
|  W                  +H..             E
|-------------------|--------------------|
|-------------------|--------------------|
|-------------------|--------------------|
|--5----------------|-(5)--------------7-|
|-------------------|--------------------|
|-------------------|--------------------|


  E E E E E E E E    E   E E E E E E E
|-----------------|--------------------|
|-------0-------0-|----------0-------0-|
|-----0-------0---|--------0-------0---|
|---5-------5-----|------5-------5-----|
|-7-------7-------|--9---------9-------|
|-----------------|--------------------|
|
| W                 +H..             E
|-----------------|--------------------|
|-----------------|--------------------|
|-----------------|------------------7-|
|-5---------------|-(5)----------------|
|-----------------|--------------------|
|-----------------|--------------------|


   E   E E E  E E E E   E E  E E E E E  E
|---------------------|-------------------|
|----------0--------0-|--------0--------0-|
|--------0--------0---|------0-------0----|
|------5--------5-----|---5--------5------|
|-10---------10-------|-9--------9--------|
|---------------------|-------------------|
|
|  H..              E   E E  E E E E E  E
|---------------------|-8-7---------------|
|--8------------------|-----10-8-7---7-10-|
|-------------------7-|------------9------|
|---------------------|-------------------|
|---------------------|-------------------|
|---------------------|-------------------|


  E   E E E E E E E   E   E E E E E E E
|-------------------|-------------------|
|---------0-------0-|---------0-------0-|
|-------0-------0---|-------0-------0---|
|-----5-------5-----|-----5-------5-----|
|-7---------7-------|-6---------6-------|
|-------------------|-------------------|
|
| H..             E   H..             E
|-------------------|-------------------|
|-8-----------------|-------------------|
|-----------------7-|-8-----------------|
|-------------------|-----------------7-|
|-------------------|-------------------|
|-------------------|-------------------|


 Verse 1
  Q=114
  Gtr III
   H.            +Q     W                 W                 W
   |              |
   o              /

  Gtrs I, II
   E  E E E  E E  E E   E E E E E E E E   E E E E E E E E   E E E E E E E E
|---------------------|-----------------|-----------------|-----------------|
|---------0---------0-|-------0-------0-|-------0-------0-|-------0-------0-|
|-------0---------0---|-----0-------0---|-----0-------0---|-----0-------0---|
|-----5--------5------|---5-------5-----|---5-------5-----|---5-------5-----|
|-10--------10--------|-9-------9-------|-7-------7-------|-9-------9-------|
|---------------------|-----------------|-----------------|-----------------|


   E E E E  E E E E   E E E E E E E E   E E E E E E E E   E E E E E E E E
|-------------------|-----------------|-----------------|-----------------|
|--------0--------0-|-------0-------0-|-------0-------0-|-------0-------0-|
|------0--------0---|-----0-------0---|-----0-------0---|-----0-------0---|
|----5--------5-----|---5-------5-----|---5-------5-----|---5-------5-----|
|-10-------10-------|-9-------9-------|-7-------7-------|-6-------6-------|
|-------------------|-----------------|-----------------|-----------------|


   E E E E  E E E E   E E E E E E E E   E E E E E E E E   E E E E E E E E
|-------------------|-----------------|-----------------|-----------------|
|--------0--------0-|-------0-------0-|-------0-------0-|-------0-------0-|
|------0--------0---|-----0-------0---|-----0-------0---|-----0-------0---|
|----5--------5-----|---5-------5-----|---5-------5-----|---5-------5-----|
|-10-------10-------|-9-------9-------|-7-------7-------|-9-------9-------|
|-------------------|-----------------|-----------------|-----------------|


   E E E E  E E E E   E E E E E E E E   E E E E E E E E   E E E E E E E E
|-------------------|-----------------|-----------------|-----------------|
|--------0--------0-|-------0-------0-|-------0-------0-|-------0-------0-|
|------0--------0---|-----0-------0---|-----0-------0---|-----0-------0---|
|----5--------5-----|---5-------5-----|---5-------5-----|---5-------5-----|
|-10-------10-------|-9-------9-------|-7-------7-------|-6-------6-------|
|-------------------|-----------------|-----------------|-----------------|


 Chorus
  (B7/C)                          (G)              (Gmaj9/F#)
  Gtrs I, II
  E E E Q  Q  E   E E E Q  Q  E   E E E Q  E E E   E E E Q  E E E
|---------------|---------------|-------3--------|-------2--------|
|-------0-------|-------0-------|----------0---0-|----------0---0-|
|-----2----2----|-----2----2----|------------0---|------------0---|
|---1---------1-|---1---------1-|-----0----------|-----0----------|
|-3-------------|-3-------------|---2------------|---0------------|
|---------------|---------------|-3--------------|-2--------------|


  (G9/F)           (E)              (B7/C)
  E E E Q  E E E   E E E Q  E E E   E E E Q  Q  E   E E E Q  Q  E
|-------1--------|-------0--------|---------------|---------------|
|----------0---0-|----------0---0-|-------0-------|-------0-------|
|------------0---|------------1---|-----2----2----|-----2----2----|
|-----0----------|-----2----------|---1---------1-|---1---------1-|
|---0------------|---2------------|-3-------------|-3-------------|
|-1--------------|-0--------------|---------------|---------------|


 Acoustic Solo
  N.C.
  Gtrs I, II
   E  E E E  E E E E   E E E E E E E E
|--------------------|-----------------|
|---------0--------0-|-------0-------0-|
|-------0--------0---|-----0-------0---|
|-----5--------5-----|---5-------5-----|
|-10--------10-------|-9-------9-------|
|--------------------|-----------------|
|
| Gtr IV
|  H.            E E   W
|--------------------|-----------------|
|--------------------|-----------------|
|--------------------|-----------------|
|----------------7-9-|-----------------|
|-10-----------------|-9---------------|
|--------------------|-----------------|


   E     E  E  E   E E   E E      E  E E   E    E E   E   E
|------------------------------|------------------------------|
|--------------0-----------0---|-----------0--------------0---|
|-----------0------------0-----|-------0--------------0-------|
|--------5-----------5---------|-----5------------5-----------|
|--7---------------7-----------|--9-------------9-------------|
|------------------------------|------------------------------|
|
|  S  E.    E  S Q     Q     S    Q.      +S  S E S E   S E
|------------------------------|------------------------------|
|------------------------------|------------------------------|
|------------------------------|------------------------------|
|-12s14----12-12s7-----5-----5s|=10------(10)-7s9-7s9---7s9---|
|------------------------------|------------------------------|
|------------------------------|------------------------------|


   E  E E E  E E E E   E   E E E E E E E
|--------------------|-------------------|
|---------0--------0-|---------0-------0-|
|-------0--------0---|-------0-------0---|
|-----5--------5-----|-----5-------5-----|
|-10--------10-------|-9---------9-------|
|--------------------|-------------------|
|
|  H.            E E   H..             E
|--------------------|-------------------|
|--------------------|-------------------|
|--------------------|-------------------|
|----------------7-9-|-------------------|
|-10-----------------|-9---------------5-|
|--------------------|-------------------|


  E E E E E E E E    E  E E E E    E E E
|-----------------|----------------------|
|-------0-------0-|---------0----------0-|
|-----0-------0---|-------0----------0---|
|---5-------5-----|-----5----------5-----|
|-7-------7-------|--6--------6----------|
|-----------------|----------------------|
|
| W                 +Q.     E S  S E E E
|-----------------|----------------7-----|
|-----------------|-----------8s10---8---|
|-----------------|---------7----------7-|
|-----------------|----------------------|
|-7---------------|-(7)------------------|
|-----------------|----------------------|


 Verse 2
  Gtrs I, II
   E E E E  E E E E   E E E E E  E   E      E
|-------------------|-------------------------|
|--------0--------0-|-------0---------------0-|
|------0--------0---|-----0----------0--------|
|----5--------5-----|---5--------5------------|
|-10-------10-------|-9-------9---------------|
|-------------------|-------------------------|
|
|                     Gtr III
|  W                  H       E  E  +E      E
|-------------------|-------------------------|
|--8----------------|----------------------15-|
|-------------------|-----------14-(14)b16----|
|-------------------|-------------------------|
|-------------------|-------------------------|
|-------------------|-------------------------|


   E     E E E E E E E     E    E  E  E  E  E  E  E
|----------------------|-------------------------------|
|------------0-------0-|--------------0-----------0----|
|----------0-------0---|-----------0-----------0-------|
|--------5-------5-----|--------5-----------5----------|
|--7-----------7-------|---9-------------9-------------|
|----------------------|-------------------------------|
|
|  ~~~~~~~~~~~~~~~~~~~~~~~~~~~~
|                                                 |3-|
|  W                      +E    E  E  E  E  E  E  S  E
|----------------------|-------------------------------|
|----------------------|-------------17-15-12----------|
|-14b16================|=(14)r-12-12----------15-14-12-|
|----------------------|-------------------------------|
|----------------------|-------------------------------|
|----------------------|-------------------------------|


   E     E     E E  E E E E          E   E E E E E E  E
|--------------------------------|----------------------|
|----------------0--------0------|-----------0--------0-|
|--------------0--------0--------|---------0-------0----|
|--------5------------5----------|-------5-------5------|
|-10---------------10------------|---9---------9--------|
|--------------------------------|----------------------|
|
|  S  S  S  H.               +S     +H..              E
|--------------------------------|----------------------|
|--------------------------------|----------------------|
|-------14-12---------------(12)-|-(12)--------------12-|
|-14-12--------------------------|----------------------|
|--------------------------------|----------------------|
|--------------------------------|----------------------|


   E    E  E  E E  E  E  E     E  E  E  E  E E   E   E
|--------------------------|----------------------------|
|-------------0----------0-|------------0------------0--|
|----------0----------0----|---------0-----------0------|
|-------5----------5-------|------5----------5----------|
|--7------------7----------|---6-----------6------------|
|--------------------------|----------------------------|
|
|                        ~~~~~~~~~
|  Q       E  Q    E  E  E    +Q     E  E  Q     E   E
|--------------------------|----------------------------|
|-15b17---15-12---------13-|-(13)---13s15-12---/12-/12--|
|-----------------14-12----|----------------------------|
|--------------------------|----------------------------|
|--------------------------|----------------------------|
|--------------------------|----------------------------|


   E  E E E  E E  E  E    E  E E E E E  E  E
|----------------------|---------------------|
|---------0----------0-|---------0---------0-|
|-------0---------0----|-------0--------0----|
|-----5--------5-------|-----5-------5-------|
|-10--------10---------|--9--------9---------|
|----------------------|---------------------|
|
|  ~~~                    ~~~
|  H.             E  E    H.            E  E
|----------------------|---------------------|
|----------------------|---------------------|
|-12-------------14-16-|-11------------14-16-|
|----------------------|---------------------|
|----------------------|---------------------|
|----------------------|---------------------|


  E  E E E E E  E  E    E  E E E E E  E  E
|--------------------|---------------------|
|--------0---------0-|---------0---------0-|
|------0--------0----|-------0--------0----|
|----5-------5-------|-----5-------5-------|
|-7--------7---------|--9--------9---------|
|--------------------|---------------------|
|
| ~~                    ~~~
| H.            E  E    H.            E  E
|--------------------|---------------------|
|--------------------|---------------------|
|-9------------14-16-|-11------------14-16-|
|--------------------|---------------------|
|--------------------|---------------------|
|--------------------|---------------------|


   E E E E  E E E E     E  E E E E E E E
|-------------------|--------------------|
|--------0--------0-|----------0-------0-|
|------0--------0---|--------0-------0---|
|----5--------5-----|------5-------5-----|
|-10-------10-------|---9--------9-------|
|-------------------|--------------------|
|
|                       >
|  ~~~~~~~~~~~~~~~~~~~~~~~~~~~~~~~~~~~~~~~
|  W                   +W
|-------------------|--------------------|
|-------------------|--------------------|
|-12----------------|-(12)---------------|
|-------------------|--------------------|
|-------------------|--------------------|
|-------------------|--------------------|


    E  E E E E E E E     E  E E E E E E E
|--------------------|--------------------|
|----------0-------0-|----------0-------0-|
|--------0-------0---|--------0-------0---|
|------5-------5-----|------5-------5-----|
|---7--------7-------|---6--------6-------|
|--------------------|--------------------|
|
|~~~~~~~~~~~~~~~~~~~~~~~~~~~
|  +W                   +W
|--------------------|--------------------|
|--------------------|--------------------|
|-(12)---------------|-(12)---------------|
|--------------------|--------------------|
|--------------------|--------------------|
|--------------------|--------------------|


 End Chorus
  (B7/C)                          (G)              (Gmaj9/F#)
  Gtrs I, II
  E E E Q  Q  E   E E E Q  Q  E   E E E Q  E E E   E E E Q  E E E
|---------------|---------------|-------3--------|-------2--------|
|-------0-------|-------0-------|----------0---0-|----------0---0-|
|-----2----2----|-----2----2----|------------0---|------------0---|
|---1---------1-|---1---------1-|-----0----------|-----0----------|
|-3-------------|-3-------------|---2------------|---0------------|
|---------------|---------------|-3--------------|-2--------------|


  (G9/F)           (E)              (B7/C)
  E E E Q  E E E   E E E Q  E E E   E E E Q  Q  E   E E E Q  Q  E
|-------1--------|-------0--------|---------------|---------------|
|----------0---0-|----------0---0-|-------0-------|-------0-------|
|------------0---|------------1---|-----2----2----|-----2----2----|
|-----0----------|-----2----------|---1---------1-|---1---------1-|
|---0------------|---2------------|-3-------------|-3-------------|
|-1--------------|-0--------------|---------------|---------------|


  N.C.
  W          +W
|----------|--------*|
|----------|--------*|
|----------|--------*|
|----------|--------*|
|----------|--------*|
|-3--------|-(3)----*|



Duration Legend
---------------
W - whole; H - half; Q - quarter; E - 8th; S - 16th; T - 32nd; X - 64th; a - acciaccatura
+ - note tied to previous; . - note dotted; .. - note double dotted
Uncapitalized letters represent notes that are staccato (1/2 duration)
Irregular groupings are notated above the duration line
Duration letters will always appear directly above the note/fret number it represents the
duration for.  Duration letters with no fret number below them represent rests.  Multi-
bar rests are notated in the form Wxn, where n is the number of bars to rest for.  Low
melody durations appear below the staff

Tablature Legend
----------------
 h   - hammer-on
 p   - pull-off
 b   - bend
 pb  - pre-bend
 r   - bend release (if no number after the r, then release immediately)
 /\  - slide into or out of (from/to "nowhere")
 s   - legato slide
 S   - shift slide
 - natural harmonic
[n]  - artificial harmonic
n(n) - tapped harmonic
 ~   - vibrato
 tr  - trill
 T   - tap
 TP  - trem. picking
 PM  - palm muting
\n/  - tremolo bar dip; n = amount to dip
 \n  - tremolo bar down
 n/  - tremolo bar up
/n\  - tremolo bar inverted dip
 =   - hold bend; also acts as connecting device for hammers/pulls
 <> - volume swell (louder/softer)
 x   - on rhythm slash represents muted slash
 o   - on rhythm slash represents single note slash

Misc Legend
-----------
 |  - bar
||  - double bar
||o - repeat start
o|| - repeat end
*|  - double bar (ending)
 :  - bar (freetime)
 $  - Segno
 &  - Coda
Tempo markers -  = BPM(8/16=s8/s16), where s8 = swing 8ths, s16 = swing 16ths

Tap to rate this tab
# A B C D E F G H I J K L M N O P Q R S T U V W X Y Z