Song name
# A B C D E F G H I J K L M N O P Q R S T U V W X Y Z

Megadeth - Out On The Tiles tab

Megadeth:  Out On The Tiles

transcribed by: Russ Elton      (webmaster@abysslord.com) 

PLEASE DO NOT COPY THIS TAB TO ANOTHER SITE 
WITHOUT AUTHORS' PERMISSION.  THANK YOU!

Date last modified:  August 03, 2007

Find more Megadeth tabs, including the most updated
version of this tab, at:

              The Vault of Deth:
   The Ultimate Megadeth Guitar Tab Collection
        http://abysslord.com/megadeth/

Tuning: Standard

Riff 1
e|-------------------------|
B|-------------------------|
G|-------------------------|
D|-12-12-12-12-12-12-12-12-|
A|-10-10-10-10-10-10-10-10-|
E|-------------------------|

e|----------------------------|
B|----------------------------|
G|----------------------------|
D|-11-11-11-11-11-11-11-11-11-|
A|--9--9--9--9--9--9--9--9--9-|
E|----------------------------|

e|-----------------------|
B|-----------------------|
G|-----------------------|
D|-2------2------2-------|
A|-0------0------0-------|
E|---4b5----4b5----4b5r4-|


Riff 2
e|------------------|
B|------------------|
G|------------------|
D|-------4\---------|
A|-----4-----xx-xxx-|
E|-2-6-------xx-xxx-|
   "...walk down..."
e|-----------------------------------|
B|-----------------------------------|
G|-----------------------------------|
D|-1-2-1-2-1-2-1---------------------|
A|---------------4-0-2-0-2-0-2-3-2-0-|
E|-----------------------------------|
   "...do is sing..."
e|--------------------------|
B|--------------------------|
G|--------------------------|
D|-------4\-----------------|
A|-----4-----xx-x-x-xx-x--x-|
E|-2-6-------xx-x-x-xx-x--x-|
   "...train that's..."
e|-----------------------------------|
B|-----------------------------------|
G|-----------------------------------|
D|-1-2-1-2-1-2-1---------------------|
A|---------------4-0-2-0-2-0-2-3-2-0-|
E|-----------------------------------|
   "...the rhythm..."
e|------------------|
B|------------------|
G|------------------|
D|-------4\---------|
A|-----4-----xx-xxx-|
E|-2-6-------xx-xxx-|
   "There is no doubt..."
e|-------------------------------|
B|-------------------------------|
G|-------------------------------|
D|-1-2-1-2-1-2-1-----------------|
A|---------------4-2-4-2-4-2-4-2-|
E|-------------------------------|

e|------------------------------------|
B|------------------------------------|
G|------------------------------------|
D|------------------------------------|
A|---------------------4--2--4----2-4-|
E|-5-4-5-4-5-4-5-4-5-4-2--0--2----0-2-|

Lead over last bar:
e|------------------------------------------------------|
B|-14-----14-----14-------14-----14-----------14--------|
G|-16b18--16b18--16b18----16b18--16b18--16b18----16b18\-|
D|------------------------------------------------------|
A|------------------------------------------------------|
E|------------------------------------------------------|


Repeat Riff 2


Riff 3
e|---------------------------------|
B|---------------------------------|
G|---------------------------------|
D|---------9-9-9-9---------2-2-2-2-|
A|---------7-7-7-7-0-0-0-0-0-0-0-0-|
E|-0-0-0-0-------------------------|
   * * * *         * * * *
       "All I need..."
e|---------------------------------|
B|---------------------------------|
G|---------------------------------|
D|---------2-2-2-2---------9-9-9-9-|
A|-0-0-0-0-0-0-0-0---------7-7-7-7-|
E|-----------------0-0-0-0---------|
   * * * *         * * * *
     "...is all your..."
e|---------------------------------|
B|---------------------------------|
G|---------------------------------|
D|---------9-9-9-9---------2-2-2-2-|
A|---------7-7-7-7-0-0-0-0-0-0-0-0-|
E|-0-0-0-0-------------------------|
   * * * *         * * * *
   "All you gotta..."
e|---------------------------------|
B|---------------------------------|
G|---------------------------------|
D|---------2-2-2-2---------9-9-9---|
A|-0-0-0-0-0-0-0-0---------7-7-7-0-|
E|-----------------0-0-0-0---------|
   * * * *         * * * *
      "...is all your..."
e|----------------------------|
B|----------------------------|
G|----------------------------|
D|-2------2------2------2-----|
A|-0------0------0------0-----|
E|---4b5----4b5----4b5----4b5-|


Repeat Riff 3  "All I need..."


Riff 1a
e|-------------------------|
B|-------------------------|
G|-------------------------|
D|-12-12-12-12-12-12-12-12-|
A|-10-10-10-10-10-10-10-10-|
E|-------------------------|

e|----------------------------|
B|----------------------------|
G|----------------------------|
D|-11-11-11-11-11-11-11-11-11-|
A|--9--9--9--9--9--9--9--9--9-|
E|----------------------------|

e|----------------------------|
B|----------------------------|
G|----------------------------|
D|-2------2------2------2-----|
A|-0------0------0------0-----|
E|---4b5----4b5----4b5----4b5-|

e|-------------------------|
B|-------------------------|
G|-------------------------|
D|-12-12-12-12-12-12-12-12-|
A|-10-10-10-10-10-10-10-10-|
E|-------------------------|

e|----------------------------|
B|----------------------------|
G|----------------------------|
D|-11-11-11-11-11-11-11-11-11-|
A|--9--9--9--9--9--9--9--9--9-|
E|----------------------------|

e|----------------------------|
B|----------------------------|
G|----------------------------|
D|-2------2------2------------|
A|-0------0------0------------|
E|---4b5----4b5----4b5--(5)r4-|


Play Riff 2  Play 2x
Play Riff 3  "All I need..."
Play Riff 1a Play 2x


Riff 4 (Solo Rhythm)
e|-------------------------------------|
B|-------------------------------------|
G|-------------------------------------|
D|-9-9-9-12-12---9---9---9-12-12-12-12-|
A|-7-7-7-10-10---7---7---7-10-10-10-10-|
E|-------------0---0---0---------------|
               *   *   *
e|-------------------------------------|
B|-------------------------------------|
G|-------------------------------------|
D|-9-9-9-12-12---9---14---13-12-12-12--|
A|-7-7-7-10-10---7---12---11-10-10-10--|
E|-------------0---0----0--------------|
               *   *    *


Solo (Mustaine)
e|-------------------------------------|
B|-------------------------------------|
G|-------------------------------------|
D|-------------------------------------|
A|-------------------------------------|
E|-------------------------------------|

e|-------------------------------------|
B|-------------------------------------|
G|-------------------------------------|
D|-------------------------------------|
A|-------------------------------------|
E|-------------------------------------|

e|-------------------------------------|
B|-------------------------------------|
G|-------------------------------------|
D|-------------------------------------|
A|-------------------------------------|
E|-------------------------------------|

e|-------------------------------------|
B|-------------------------------------|
G|-------------------------------------|
D|-------------------------------------|
A|-------------------------------------|
E|-------------------------------------|

End Solo


Outro riff (Kashmir)
e|------------------------|
B|------------------------|
G|------------------------|
D|---9-9-9----9-9-9----9--|
A|---7-7-7----7-7-7----7--|
E|-0--------0--------0----|
   *        *        *
e|-----------------------------|
B|-----------------------------|
G|-----------------------------|
D|---10-10-10---10-10-10---10--|
A|----7--7--7----7--7--7----7--|
E|-0----------0----------0-----|
   *          *          *
e|-----------------------------|
B|-----------------------------|
G|-----------------------------|
D|---11-11-11---11-11-11---11--|
A|----7--7--7----7--7--7----7--|
E|-0----------0----------0-----|
   *          *          *
e|------------------------------|
B|------------------------------|
G|----------------------6-------|
D|---12-12-12-----9-8-9---9-8-9-|
A|----7--7--7-------------------|
E|-0----------0-0---------------|
   *          * *
e|-------------------------|
B|-------------------------|
G|-------------------------|
D|-6--9-9-9----9-9-9----9--|
A|----7-7-7----7-7-7----7--|
E|----------0--------0-----|
            *        *
e|-----------------------------|
B|-----------------------------|
G|-----------------------------|
D|---10-10-10---10-10-10---10--|
A|----7--7--7----7--7--7----7--|
E|-0----------0----------0-----|
   *          *          *
e|-----------------------------|
B|-----------------------------|
G|-----------------------------|
D|---11-11-11---11-11-11---11--|
A|----7--7--7----7--7--7----7--|
E|-0----------0----------0-----|
   *          *          *
e|------------------------------|
B|------------------------------|
G|----------------------6-------|
D|---12-12-12-----9-8-9---9-8-9-|
A|----7--7--7-------------------|
E|-0----------0-0---------------|
   *          * *



Notation:

10^        = bend a quarter step.
10b11      = bend a half step.
10b12      = bend a full step.
10b12r10   = bend and release.
[10]12     = pre-bend.
[10]12r10  = pre-bend and release.
{14}       = pick the 14th fret while holding the most 
             previous bend.
<17>       = touch the string above the 17th fret while 
             previous note(s) is(are) still ringing.

10b13*     = tremolo bar bend, from the 10th fret to the 13th fret.
7d4*       = tremolo bar dive, from the 7th fret to the 4th fret. 
12~*       = tremolo bar vibrato.

x   =  mute with fret-hand
*   =  palm mute
X\\ =  pick slide
h   =  hammer-on
p   =  pull-off
~   =  vibrato
t   =  finger tap
/   =  slide up
\   =  slide down
h.  =  natural harmonics
a   =  artificial harmonics
(9) =  ghost note
tm  =  trem picking
tr  =  trill
Tap to rate this tab
# A B C D E F G H I J K L M N O P Q R S T U V W X Y Z