Song name
# A B C D E F G H I J K L M N O P Q R S T U V W X Y Z

Megadeth - A Tout Le Monde drum

--This is cool song. Fun to play too. Hope I didnt make many mistakes.--
---This song is mostly just beats, a few fills but thats it.------------
-------Send requests for Megadeth and Metallica please.-----------------

After Marty's intro - 00:38
CC:2---------------|----------------|----------------|--------------2-:
SH:--2-2-2-2-2-2-2-|2-2-2-2-2-2-2-2-|2-2-2-2-2-2-2-2-|2-2-2-2-2-2-----:
SN:----2-------2---|----2-------2---|----2-------2---|----2-------f---:
BA:2-------2-2-----|2-------2-2-----|2-------2-2-----|2-------2-2---2-:

CC:2-------------2-|----------------|2-------------2-|2---------------:
SH:--2-2-2-2-2-2---|2-2-2-2-2-2-2---|--2-2-2-2-2-2---|--2-2-2-2-2-2-2-:
SN:----2-------2---|----2-------2-22|----2-------2---|----2-------2---:
BA:2-------2-2---2-|--2-----2-2-----|2-------2-2---2-|2-------2-2-----:

CC:--------------2-|2---------------|2---------------|2---------------:
RC:----------------|--2-2-2-2-2-2-2-|--2-2-2-2-2-2-2-|--2-2-2-2-2-2-2-:
SN:22--22--------2-|----2-------2---|----2-------2---|----2-------2---:
T1:--22--22--------|----------------|----------------|----------------:
T2:--------2222----|----------------|----------------|----------------:
FT:------------22--|----------------|----------------|----------------:
BA:----------------|2-------2-2-----|2-------2-2-----|2-------2-2-----:

CC:2-------------2-|2-------------2-|2-------------2-|2---------------:
RC:--2-2-2-2-2-2---|--2-2-2-2-2-2---|--2-2-2-2-2-2---|--2-2-2---------:
SN:----2-------2---|----2-------2---|----2-------2---|----2-----------:
T1:----------------|----------------|----------------|--------2222----:
T2:----------------|----------------|----------------|------------2222:
BA:2-------2-2---2-|2-------2-2---2-|2-------2-2---2-|2---------------:

CC:2-------------2-:
RC:--2-2-2-2-------:
SN:----2---------2-:
B1:2-------22-2----:
B2:----------2-2---:
     triplet/^       

CC:2---------------|----------------|----------------|--------------2-:
SH:--2-2-2-2-2-2-2-|2-2-2-2-2-2-2-2-|2-2-2-2-2-2-2-2-|2-2-2-2-2-2-2---:
SN:----2-------2---|----2-------2---|----2-------2---|----2-------2---:
BA:2-------2-----2-|2-------2-------|2-------2-----2-|2-----2-2-----2-:

CC:2---------------|----------------|----------------|----------------:
SH:--2-2-2-2-2-2-2-|2-2-2-2-2-2-2-2-|2-2-2-2-2-2-2-2-|2-2-2-2-2-------:
SN:----2-------2---|----2-------2---|----2-------2---|----2-----22f222:
BA:2-------2-------|2-------2-2-----|2-------2-2---2-|2-----2-2-------:

CC:2---------------|----------------|----------------|--------------2-:
SH:--2-2-2-2-2-2-2-|2-2-2-2-2-2-2-2-|2-2-2-2-2-2-2-2-|2-2-2-2-2-2-----:
SN:----2-------2---|----2-------2---|----2-------2---|----2-------22--:
BA:2-------2-------|2-------2-------|2-------2-2-----|2-------2-2---2-:

CC:2-------------2-|----------------|2---------------|2---------------:
SH:--2-2-2-2-2-2---|2-2-2-2-2-2-2-2-|--2-2-2-2-2-2-2-|--2-2-2-2-2-2-2-:
SN:----2-------2---|----2-------2---|----2-------2---|----2-------2---:
BA:2-------2-2---2-|--2-----2-2-----|2-------2-2---2-|2-------2-2-----:

CC:--------------2-|2---------------|2---------------|2-------------2-:
RC:----------------|--2-2-2-2-2-2-2-|--2-2-2-2-2-2-2-|--2-2-2-2-2-2---:
SN:-222f2--------2-|----2-------2---|----2-------2---|----2-------2---:
T1:2-----2222------|----------------|----------------|----------------:
T2:----------22----|----------------|----------------|----------------:
FT:------------22--|----------------|----------------|----------------:
BA:----------------|2-------2-2-----|2-------2-2-----|2-------2-2---2-:

CC:2---------------|2-------------2-|2---------------|2---------------:
RC:--2-2-2-2-2-2-2-|--2-2-2-2-2-2---|--2-2-2-2-2-2-2-|--2-2-2---------:
SN:----2-------2---|----2-------2---|----2-------2---|----2-----------:
T1:----------------|----------------|----------------|--------2222----:
T2:----------------|----------------|----------------|------------2222:
BA:2-------2-2---2-|2-------2-2---2-|2-------2-2-----|2---------------:

CC:2-------------2-:
RC:--2-2-2-2-2-2---:
SN:----2---------2-:
B1:2-------22-2----:
B2:----------2-2---:
     triplet/^

Guitar Solo:
CC:2---------------|----------------|----------------|--------------2-:
SH:--2-2-2-2-2-2-2-|2-2-2-2-2-2-2-2-|2-2-2-2-2-2-2-2-|2-2-2-2-2-2-2---:
SN:----2-------2---|----2-------2---|----2-------2---|----2-------2---:
BA:2-------2-----2-|2-------2-2-----|2-------2-2---2-|2-----2-2-----2-:

CC:2---------------|----------------|----------------|----------------:
SH:--2-2-2-2-2-2-2-|2-2-2-2-2-2-2-2-|2-2-2-2-2-2-2-2-|2-2-2-2-2-------:
SN:----2-------2---|----2-------2---|----2-------2---|----2-----22----:
T1:----------------|----------------|----------------|------------22--:
T2:----------------|----------------|----------------|--------------22:
BA:2-------2-----2-|2-------2-2-----|2-------2-2-----|2-----2-2-------:

CC:2---------------|----------------|----------------|--------------2-:
SH:--2-2-2-2-2-2-2-|2-2-2-2-2-2-2-2-|2-2-2-2-2-2-2-2-|2-2-2-2-2-2-----:
SN:----2-------2---|----2-------2---|----2-------2---|----2-------22--:
BA:2-------2-------|2-------2-2-----|2-------2-------|2-------2-2---2-:

CC:2-------------2-|----------------|2---------------|2---------------:
SH:--2-2-2-2-2-2---|2-2-2-2-2-2-2---|--2-2-2-2-2-2-2-|--2-2-2-2-2-2-2-:
SN:----2-------2---|----2-------2-22|----2-------2---|----2-------2---:
BA:2-------2-2---2-|--2-----2-2-----|2-------2-2-----|2-------2-2-----:

CC:----------------|2---------------|----------------|2-------------2-:
RC:----------------|--2-2-2-2-2-2-2-|2-2-2-2-2-2-2-2-|--2-2-2-2-2-2---:
SN:22--22----------|----2-------2---|----2-------2---|----2-------2---:
T1:--22--22--------|----------------|----------------|----------------:
T2:--------2222----|----------------|----------------|----------------:
FT:------------2222|----------------|----------------|----------------:
BA:----------------|2-------2-2-----|2-------2-2---2-|2-------2-2---2-:

CC:2-------------2-|2-------------2-|2---------------|2---------------:
RC:--2-2-2-2-2-----|--2-2-2-2-2-2---|--2-2-2-2-2-2-2-|--2-2-2---------:
SN:----2-------22--|----2-------2---|----2-------2---|----2-----------:
T1:----------------|----------------|----------------|--------2222----:
T2:----------------|----------------|----------------|------------2222:
BA:2-------2-2---2-|2-------2-2---2-|2-------2-2-----|2---------------:

CC:2-----------2---:
RC:--2-2-2-2-------:
SN:----2-------2---:
B1:2-------22-2--2-:
B2:----------2-----:
     triplet/^   

   /---play 2x----
CC:2---------------|2-------------2-|2---------------|2---------------:
RC:--2-2-2-2-2-2-2-|--2-2-2-2-2-2---|--2-2-2-2-2-----|--2-2-2-2-2-2-2-:
SN:----2-------2---|----2-------2---|----2-------22--|----2-------2---:
T1:----------------|----------------|--------------22|----------------:
BA:2-------2-2-----|2-------2-2---2-|2-------2-2-----|2-------2-2---2-:

CC:2---------------|2---------------|2---------------:
RC:--2-2-2-2-2-2-2-|--2-2-2---------|--2-2-----------:
SN:----2-------2---|----2-----------|----2---2-------:
T1:----------------|--------2222----|------22--22----:
T2:----------------|------------2222|------------22--:
FT:----------------|----------------|--------------22:
BA:2-------2-2-----|2---------------|2---------------:

   /---play 2x----
CC:2---------------|2---------------|----------------|2---------------:
RC:--2-2-2-2-2-2-2-|--2-2-2-2-2-2-2-|2-2-2-2-2-2-2-2-|--2-2-2-2-2-2-2-:
SN:----2-------2---|----2-------2---|----2-------2---|----2-------2---:
BA:2-------2-2-----|2-------2-2---2-|2-----2-2-----2-|2-------2-2-----:

CC:2---------------|2---------------|-2--2--2--2-----|2---------------:
RC:--2-2-2-2-2-2-2-|--2-2-2-2-2-2-2-|----------------|----------------:
SN:----2-------2---|----2-------2---|2--2--2--2--f---|----------------:
T1:----------------|----------------|-------------f--|----------------:
T2:----------------|----------------|--------------f-|----------------:
	
Tap to rate this tab
# A B C D E F G H I J K L M N O P Q R S T U V W X Y Z