Song name
# A B C D E F G H I J K L M N O P Q R S T U V W X Y Z

Megadeth - Mechanix tab

Eb|-------------------------------------------------|--------------------|
Bb|-------------------------------------------------|--------------------|
Gb|-------------------------------------------------|--------------------|
Db|-------------------------------------------------|------------14------|
Ab|-7-5---5-----------------7-5---5-----------------|-------13--------12-|
Eb|-----7---7-6-5-3-5-0-3-5-----7---7-6-5-3-5-0-3-5-|--12----------------|
                                 *  Guitar 2 plays Section F throughout.
Eb|--------------------------------------14----|-15p12----15h17-12-15p12-|
Bb|-----------------------14--------13---------|-------15----------------|
Gb|--------14--------13--------12--------------|-------------------------|
Db|---13--------12-----------------------------|-------------------------|
Ab|--------------------------------------------|-------------------------|
Eb|--------------------------------------------|-------------------------|


Eb|-------------12h15-12-15h17-12-15p12----------------12h15-12-15h17-15-|
Bb|-15-17-12-15-------------------------15-17p12-15h17-------------------|
Gb|----------------------------------------------------------------------|
Db|----------------------------------------------------------------------|
Ab|----------------------------------------------------------------------|
Eb|----------------------------------------------------------------------|

Eb|-12-----------|-------------------------------------------------------|
Bb|----17p15-12--|-15h17-15-12-------------------------------15p12-------|
Gb|--------------|-------------16-15-15p14-12----12-14-15-16-------16-15-|
Db|--------------|----------------------------14-------------------------|
Ab|--------------|-------------------------------------------------------|
Eb|--------------|-------------------------------------------------------|

Eb|---------------------------------------------------------|-12-------|
Bb|---------------------------------------------------------|----15p12-|
Gb|-14-12-14-15-14-12----12---------------------------------|----------|
Db|-------------------14----14-13-12-13-14-13-12------------|----------|
Ab|----------------------------------------------14-13-12~--|----------|
Eb|---------------------------------------------------------|----------|

Eb|--------12--------------12--------------12--------------12-------------|
Bb|-----------15p12-----------15p12-----------15p12-----------15p12-------|
Gb|-14b16-----------14b16-----------14b16-----------14b16-----------14b16-|
Db|-----------------------------------------------------------------------|
Ab|-----------------------------------------------------------------------|
Eb|-----------------------------------------------------------------------|

Eb|--12--------------12---------------|-12-----------------------------|
Bb|-----15p12-----------15p12---------|----15p12--------12-------------|
Gb|-----------14b16-----------14b16---|----------14b16-----15p12-14p12-|
Db|-----------------------------------|--------------------------------|
Ab|-----------------------------------|--------------------------------|
Eb|-----------------------------------|--------------------------------|

Eb|----------------------------------------------------------------------|
Bb|-------------------12-------------------------------------------------|
Gb|----12h14-12-14-15----12-14-15p14-12----------------------------------|
Db|-14----------------------------------14p12----12-14-14-14p12----12----|
Ab|-------------------------------------------14----------------14----14-|
Eb|----------------------------------------------------------------------|

Eb|----------------|------------------24p22-19-19-19-19-24p22-19-19-19-|
Bb|----------------|---------------------------------------------------|
Gb|----------------|---------------------------------------------------|
Db|----------------|---------------------------------------------------|
Ab|-13-12-13-14-13-|-12------------------------------------------------|
Eb|----------------|----15-12\-----------------------------------------|
         *  Tremolo pick all the way down slide to encompass all notes.
Eb|-19-24p22-19-19-19-19-24p22-19--------19-22-|-24p22-19--------19-22-|
Bb|-------------------------------22b24--------|----------22b24--------|
Gb|--------------------------------------------|-----------------------|
Db|--------------------------------------------|-----------------------|
Ab|--------------------------------------------|-----------------------|
Eb|--------------------------------------------|-----------------------|


Eb|-24p22-19--------19-22-24p22-19--------19-22-24p22-19--------19-19-24--|p
Bb|----------22b24-----------------22b24-----------------22b24------------|
Gb|-----------------------------------------------------------------------|
Db|-----------------------------------------------------------------------|
Ab|-----------------------------------------------------------------------|
Eb|-----------------------------------------------------------------------|

Eb|-22-19--------19-24p22-19-------|-19-24p22-19--------19-24p22-19-------|
Bb|-------22b24--------------22b24-|-------------22b24--------------22b24-|
Gb|--------------------------------|--------------------------------------|
Db|--------------------------------|--------------------------------------|
Ab|--------------------------------|--------------------------------------|
Eb|--------------------------------|--------------------------------------|

Eb|--19-24p22-19----19--24p22-19-----24p22-19-24p22-19-24p22-19-24p22-19-|
Bb|--------------22--------------19--------------------------------------|
Gb|----------------------------------------------------------------------|
Db|----------------------------------------------------------------------|
Ab|----------------------------------------------------------------------|
Eb|----------------------------------------------------------------------|

Eb-|-------------15p12----12-15p12-15p12-12-12-15p12-17p12----12-17p12-|
Bb-|-17b19-------------12----------------------------------15----------|
Gb-|-------------------------------------------------------------------|
Db-|-------------------------------------------------------------------|
Ab-|-------------------------------------------------------------------|
Eb-|-------------------------------------------------------------------|

Eb|-15p12-----------------------------------|----------------------------|
Bb|-------15p12----15p12-15p12-------15p12--|-15p12----12-15p12-17p12----|
Gb|-------------15-------------15-14--------|-------15----------------15-|
Db|-----------------------------------------|----------------------------|
Ab|-----------------------------------------|----------------------------|
Eb|-----------------------------------------|----------------------------|

Eb|-------------------------------12-12-15p12-15-17p15-12-18--------13--|h
Bb|-12-17p12-15p12----15p12-12-15----------------------------15/-17-----|
Gb|----------------15---------------------------------------------------|
Db|---------------------------------------------------------------------|
Ab|---------------------------------------------------------------------|
Eb|---------------------------------------------------------------------|

Eb|-15-17-18p17-|-15h17-15-------17-18-20-18-17-18--------r------------|
Bb|-------------|----------15--r-------------------20b22---17-20-17-18-|
Gb|-------------|------------------------------------------------------|
Db|-------------|------------------------------------------------------|
Ab|-------------|------------------------------------------------------|
Eb|-------------|------------------------------------------------------|

Eb|-20h22-20p18----18h22-22b24----22~-22--22--22--22-|-22---r-----24b26-|
Bb|-------------20-----------------------------------|------------------|
Gb|--------------------------------------------------|------------------|
Db|--------------------------------------------------|------------------|
Ab|--------------------------------------------------|------------------|
Eb|--------------------------------------------------|------------------|

                                           END: GUITAR 2
|----24--24--24--24---r-----\----------*|------------------------------|
|--------------------------------------*|------------------------------|
|--------------------------------------*|------------------------------|
|--------------------------------------*|------------------------------|
|--------------------------------------*|---7p5-7p5-7p5-7p5-7p5-7p5-7--|p
|--------------------------------------*|---0-0-0-0-0-0-0-0-0-0-0-0-0--|

|----------------------------------------|-------------------------|
|----------------------------------------|-------------------------|
|----------------------------------------|-------------------------|
|------------------------------7p5-------|-------------------------|
|-5---5---7p5-7p5-7p5-7p5---5------7p5---|---7p5-7p5-7p5---5---7p5-|
|---7-----0-0-0-0-0-0-0-0-7--------------|---0-0-0-0-0---7-----0-0-|

|----------------------------------*-|
|----------------------------------*-|
|-------------------------------9--*-|
|---------------5-------7---5---9--*-|
|-7p5-7p5---5---3---5---5---3---7--*-|
|-0-0-0-0-7---------3-----------0--*-|
Tap to rate this tab
# A B C D E F G H I J K L M N O P Q R S T U V W X Y Z