Song name
# A B C D E F G H I J K L M N O P Q R S T U V W X Y Z

Megadeth - Bite The Hand tab


E |---------------------------|
B |---------------------------|
G |---------------------------|
D |---------------------------|
A |---------------------------|
E |-2--2--0-2-3-2--2--0-0-0-0-|
   *  *  * * * *  *  * * * *
E |---------------------------|
B |---------------------------|
G |---------------------------|
D |---------------------------|
A |---------------------------|
E |-2--2--0-2-3-2--2--2-0-2-3-|
   *  *  * * * *  *  * * *
E |---------------------------|
B |---------------------------|
G |---------------------------|
D |---------------------------|
A |---------------------------|
E |-2--2--0-2-3-2--2--0-0-0-0-|
   *  *  * * * *  *  * * * *
E |---------------------------|
B |---------------------------|
G |---------------------------|
D |---------------------------|
A |-------------------------5-|
E |-2--2--0-2-3-2--2--2-0-2-3-|
   *  *  * * * *  *  * * *

(riff 2)
E |---------------------------|
B |---------------------------|
G |---------------------------|
D |---------------------------|
A |-4--4----------------------|
E |-2--2--0-2-3-2--2--2-0-0-0-|
         * * * *  *  * * *
E |---------------------------|
B |---------------------------|
G |---------------------------|
D |---------------------------|
A |-4--4--------------------5-|
E |-2--2--0-2-3-2--2--2-0-2-3-|
         * * * *  *  * * *

(riff 3)
E |-----------------------------------|
B |-----------------------------------|
G |-5-----------------------7h8p7-5-7-|
D |-5-----7-----5-----7---------------|
A |---0-0---0-0---0-0---0-0-----------|
E |-----------------------------------|
     * *   * *   * *   * *
E |---------------------------------|
B |---------------------------------|
G |-5---------------5-----5-----5---|
D |-5-----7-----5---5-----5-----5---|
A |---0-0---0-0---0---x-x---x-x---x-|
E |---------------------------------|
     * *   * *   *   * *   * *   *
E |-----------------------------------|
B |-----------------------------------|
G |-5-----------------------7h8p7-5-7-|
D |-5-----7-----5-----7---------------|
A |---0-0---0-0---0-0---0-0-----------|
E |-----------------------------------|
     * *   * *   * *   * *
E |---------------------------------|
B |---------------------------------|
G |-5---------------5---7-5---7-5---|
D |-5-----7-----5---5-7-7-5-7-7-5-7-|
A |---0-0---0-0---0---7-----7-----7-|
E |---------------------------------|
     * *   * *   *

(riff 3a)
E |-----------------------------------|
B |-----------------------------------|
G |-5-----------------------7h8p7-5-7-|
D |-5-----7-----5-----7---------------|
A |---0-0---0-0---0-0---0-0-----------|
E |-----------------------------------|
     * *   * *   * *   * *        x2
E |---------------------------------|
B |-------------------------7/8-5h7-|
G |-5-----------------------7/8-5h7-|
D |-5-----7-----5-----7-------------|
A |---0-0---0-0---0-0---0-0---------|
E |---------------------------------|
     * *   * *   * *   * *
E |----------------------------|
B |----------------------------|
G |-5--------------------------|
D |-5-----7-----5-----7--------|
A |---0-0---0-0---0-0---0-0-5--|
E |-------------------------3--|
     * *   * *   * *   * *

(play - riff 2)
(play - riff 3)
(play - riff 3a)
(play - riff 2)

(riff 4)
E |---------------------------------|
B |---------------------------------|
G |---------------------------------|
D |---------------------------------|
A |---------------------------------|
E |-5-0-7-8-5-0-7-8-5-0-7-8-5-0-7-8-|
   * * * * * * * * * * * * * * * *
E |------------------------------|
B |------------------------------|
G |------------------------------|
D |------------------------------|
A |---------------------------5--|
E |-7-0-9-10-7-0-9-10-7-0-9-7-3--|
   * * *  * * * *  * * * * *

(riff 5)
E |------------------------------------------------------|
B |------------------------------------------------------|
G |------------------------------------------------------|
D |------------------------------------------------------|
A |-4--4--------5--5--------5--6--6--------5--5----7-6-5-|
E |-2--2--0-1-2-3--3--3-0-2-3--4--4--0-3-4-3--3--0-5-4-3-|
         * * *       * * *          * * *       *

(riff 4a)
E |---------------------------------|
B |---------------------------------|
G |---------------------------------|
D |---------------------------------|
A |---------------------------------|
E |-5-0-7-8-5-0-7-8-5-0-7-8-5-0-7-8-|
   * * * * * * * * * * * * * * * *
E |-------------------------------------------|
B |-------------------------------------------|
G |-------------------------------------------|
D |-------------------4p2p0-4p2p0-------------|
A |-------------------------------4p2p0-------|
E |-7-0-9-10-7-0-9-10-------------------4p2p0-|
   * * *  * * * *  *

(riff 5a)
E |------------------------------------------------------|
B |------------------------------------------------------|
G |------------------------------------------------------|
D |------------------------------------------------------|
A |-4--4--------5--5--------5--6--6--------5--5----7-6-5-|
E |-2--2--0-1-2-3--3--3-0-2-3--4--4--0-3-4-3--3--0-5-4-3-|
         * * *       * * *          * * *       *
E |------------------------------------------------------|
B |------------------------------------------------------|
G |------------------------------------------------------|
D |------------------------------------------------------|
A |-4--4--------5--5--------5--6--6--------7--7----7-6-5-|
E |-2--2--0-1-2-3--3--3-0-2-3--4--4--0-2-3-5--5--0-5-4-3-|
         * * *       * * *          * * *       *

(riff 6 - solo Rhythm)              x3
E |---------------------------------|
B |---------------------------------|
G |---------------------------------|
D |-5-------------------------------|
A |-5-----7-----5-----7-------------|
E |---0-0---0-0---0-0---0-0-0-0-0-0-|
     * *   * *   * *   * * * * * *
E |----------------------------|
B |----------------------------|
G |----------------------------|
D |-5--------------------------|
A |-5-----7-----5-----7-----3--|
E |---0-0---0-0---0-0---0-0-1--|
     * *   * *   * *   * *

(riff 7 - solo Rhythm)              x3
E |---------------------------------|
B |---------------------------------|
G |-2-------------------------------|
D |-2-----4-----2-----4-------------|
A |-------4-----2-----4-------------|
E |---2-2---2-2---2-2---2-2-2-2-2-2-|
     * *   * *   * *   * * * * * *
E |-----------------------------|
B |-----------------------------|
G |-2---------------------------|
D |-2-----4-----2-----4---------|
A |-------4-----2-----4-----5-6-|
E |---2-2---2-2---2-2---2-2-3-4-|
     * *   * *   * *   * *

(solo - Broderick)
E |-12------12h13p12------------|
B |-15b17~-----------15-16b17~--|
G |-----------------------------|
D |-----------------------------|
A |-----------------------------|
E |-----------------------------|

E |-12h14p12p11-14h15p14p12/14h15h17p15p14-19-15-----------|
B |--------------------------------------------------------|
G |----------------------------------------------19-17-16~-|
D |--------------------------------------------------------|
A |--------------------------------------------------------|
E |--------------------------------------------------------|

(guitar 1)
E |-------------------------15----17-15----15-17-19-19b20r19~-|
B |----16-17----19-17----19-------------19--------------------|
G |-16-------16-------16-------16-----------------------------|
D |-----------------------------------------------------------|
A |-----------------------------------------------------------|
E |-----------------------------------------------------------|

(guitar 2)
E |-----------------------------------------------------------|
B |-------------------------17----19-17----17-19-20-20b22r20~-|
G |-------17----20-17----20-------------20--------------------|
D |-17-21----17-------17-------17-----------------------------|
A |-----------------------------------------------------------|
E |-----------------------------------------------------------|

(back to one guitar)
E |-19p15----------------------------15-|
B |-------17----------------------18----|
G |----------16----------------18-------|
D |-------------17----------20----------|
A |----------------19-16h20-------------|
E |-------------------------------------|

E |-19b21~----19b21r19b22--(22)r20-19b21~--0-|
B |------------------------------------------|
G |------------------------------------------|
D |------------------------------------------|
A |------------------------------------------|
E |------------------------------------------|

E |-19-16-13---------------------------------|
B |--------------------19-16-13--------------|
G |----------19-16-13------------------------|
D |-----------------------------19-16-14-16~-|
A |------------------------------------------|
E |------------------------------------------|

E |--------------------------------|
B |-/17-17-------------------------|
G |--------18-15-18p15-------------|
D |--------------------17p14-------|
A |--------------------------16p13-|
E |--------------------------------|

E |-------------------------------------|
B |-------------------------------------|
G |-------------------------------------|
D |----------14----------------12-14-16-|
A |-12-13-16----16-13-12-13-16----------|
E |-------------------------------------|

E |------------------------------------------|
B |--------------------------------------13~-|
G |----------12-----------------12-14-16-----|
D |-12-14-16----16-14-12-14-16---------------|
A |------------------------------------------|
E |------------------------------------------|

(end solo)

(play - riff 3)
(play - riff 3a)
(play - riff 2)
(play - riff 30
(play - riff 3a)
(play - riff 2)
(play - riff 4)
(play - riff 5)
(play - riff 4a)
(play - riff 5a)

(final time for - riff 5a play)
E |---------------------------------------------------------|
B |---------------------------------------------------------|
G |---------------------------------------------------------|
D |---------------------------------------------------------|
A |-4--4--------5--5--------5--6--6--------7--------75-53-|
E |-2--2--0-1-2-3--3--3-0-2-3--4--4--0-3-4-5--5-5-5-53-31-|
         * * *       * * *          * * *    * * *

(riff 8 - solo Rhythm)
E |-------------------------|
B |-------------------------|
G |-------------------------|
D |-------5-----------------|
A |-5h7-7---7-7-5h7-7-8-7-7-|
E |-------------------------|

E |-------------------------|
B |-------------------------|
G |-------------------------|
D |-------5-----------------|
A |-5h7-7---7-7-----5h7-----|
E |-------------5h7-----5h7-|

(solo - Broderick)
E |-12p0-8-12p0-8------8--------|
B |---------------12p0---12p0-8-|
G |-----------------------------|
D |-----------------------------|
A |-----------------------------|
E |-----------------------------|

E |-------------0-8p0-12p0-8p0-|
B |-12p0-8-12p0----------------|
G |----------------------------|
D |----------------------------|
A |----------------------------|
E |----------------------------|

E |-12p0-8-12p0-8------8--------|
B |---------------12p0---12p0-8-|
G |-----------------------------|
D |-----------------------------|
A |-----------------------------|
E |-----------------------------|

E |-------------0-14p0-15p0-14p0-|
B |-12p0-8-12p0------------------|
G |------------------------------|
D |------------------------------|
A |------------------------------|
E |------------------------------|

E |-15p0-12-15p0-12------12---------|
B |-----------------13p0----13p0-12-|
G |---------------------------------|
D |---------------------------------|
A |---------------------------------|
E |---------------------------------|

E |-----------------14p0-12p0-14p0-|
B |-13p0-12-13p0-13----------------|
G |--------------------------------|
D |--------------------------------|
A |--------------------------------|
E |--------------------------------|

E |-19p0-15-19p0-15------15---------|
B |-----------------19p0----19p0-17-|
G |---------------------------------|
D |---------------------------------|
A |---------------------------------|
E |---------------------------------|

E |--------------------------------|
B |-19p0-17-19p0-17-13p0-17p0-13p0-|
G |--------------------------------|
D |--------------------------------|
A |--------------------------------|
E |--------------------------------|

(end solo)

(riff 9 - solo Rhythm)
E |--------------------------------------|
B |--------------------------------------|
G |--------------------------------------|
D |-------5-----------------5------------|
A |-5h7-7---7-7-/8-7--5h7-7---7-7-/8-7-5-|
E |-------------/6-5--------------/6-5-3-|

(solo - Broderick)
(guitar 1)
E |---------------------------------------------------|
B |---------------------------------------------------|
G |------12-14-14b15-14~----------12-14-14b15-14--12--|
D |-14~---------------------14-14---------------------|
A |---------------------------------------------------|
E |---------------------------------------------------|

E |---------12--------------------12------------------|
B |------------15-14b15-14~----------15-14b15-14--12--|
G |-14~--12--------------------12---------------------|
D |---------------------------------------------------|
A |---------------------------------------------------|
E |---------------------------------------------------|

E |------15-------------------------------------------|
B |-17~-----17-15-17b18-17~-------15-17-17b18-17--15--|
G |----------------------------16---------------------|
D |---------------------------------------------------|
A |---------------------------------------------------|
E |---------------------------------------------------|

E |-19~--17-15-17-17b18-17~----15-------------------------|
B |-------------------------------17-17-17b18-17--15--17~-|
G |-------------------------------------------------------|
D |-------------------------------------------------------|
A |-------------------------------------------------------|
E |-------------------------------------------------------|

(guitar 2)
E |---------------------------------------------------|
B |---------------------------------------------------|
G |------16-18-18b19-18~----------16-18-18b19-18--16--|
D |-17~---------------------17-17---------------------|
A |---------------------------------------------------|
E |---------------------------------------------------|

E |--------------------------------------------------|
B |---------20-18-17b18-17~-------20-18-17b18-17-----|
G |-18~--16--------------------16----------------19--|
D |--------------------------------------------------|
A |--------------------------------------------------|
E |--------------------------------------------------|

E |------19-------------------------------------------|
B |-20~-----20-19-20b22-20~-------18-20-20b22-20--19--|
G |----------------------------19---------------------|
D |---------------------------------------------------|
A |---------------------------------------------------|
E |---------------------------------------------------|

E |-22~--22-21-19-21b22-21~----19-19-21-21b22-21--19-------|
B |---------------------------------------------------20~--|
G |--------------------------------------------------------|
D |--------------------------------------------------------|
A |--------------------------------------------------------|
E |--------------------------------------------------------|

(end solo)

(riff 8a - solo Rhythm)
(guitar 1)
E |-------------------------|
B |-------------------------|
G |-------------------------|
D |-------5-----------------|
A |-5h7-7---7-7-5h7-7-8-7-7-|
E |-------------------------|

E |-------------------------|
B |-------------------------|
G |-------------------------|
D |-------5-----------------|
A |-5h7-7---7-7-----5h7-----|
E |-------------5h7-----5h7-|

(guitar 2)
E |-------------------------|
B |-------------------------|
G |-------4-----------------|
D |-4h5-5---5-5-4h5-5-7-5-5-|
A |-------------------------|
E |-------------------------|

E |-------------------------|
B |-------------------------|
G |-------4-----------------|
D |-4h5-5---5-5-------------|
A |-----------------5h7-----|
E |-------------5h7-----5h7-|

(solo - Broderick)
E |-12p0-8-12p0-8------8--------|
B |---------------12p0---12p0-8-|
G |-----------------------------|
D |-----------------------------|
A |-----------------------------|
E |-----------------------------|

E |-------------0-8p0-12p0-8p0-|
B |-12p0-8-12p0----------------|
G |----------------------------|
D |----------------------------|
A |----------------------------|
E |----------------------------|

E |-12p0-8-12p0-8------8--------|
B |---------------12p0---12p0-8-|
G |-----------------------------|
D |-----------------------------|
A |-----------------------------|
E |-----------------------------|

E |-------------0-14p0-15p0-14p0-|
B |-12p0-8-12p0------------------|
G |------------------------------|
D |------------------------------|
A |------------------------------|
E |------------------------------|

E |-15p0-12-15p0-12------12---------|
B |-----------------13p0----13p0-12-|
G |---------------------------------|
D |---------------------------------|
A |---------------------------------|
E |---------------------------------|

E |-----------------14p0-12p0-14p0-|
B |-13p0-12-13p0-13----------------|
G |--------------------------------|
D |--------------------------------|
A |--------------------------------|
E |--------------------------------|

E |-19p0-15-19p0-15------15---------|
B |-----------------19p0----19p0-17-|
G |---------------------------------|
D |---------------------------------|
A |---------------------------------|
E |---------------------------------|

E |--------------------------------|
B |-19p0-17-19p0-17-13p0-17p0-13p0-|
G |--------------------------------|
D |--------------------------------|
A |--------------------------------|
E |--------------------------------|

(end solo)

(riff 9a)
(guitars 1 & 2)
E |--------------------------------------|
B |--------------------------------------|
G |--------------------------------------|
D |-------5-----------------5------------|
A |-5h7-7---7-7-/8-7--5h7-7---7-7-/8-7-5-|
E |-------------/6-5--------------/6-5-3-|

(final time)
E |----------------------------------------------|
B |----------------------------------------------|
G |----------------------------------------------|
D |-------5-----------------5--------------------|
A |-5h7-7---7-7-/8-7--5h7-7---7-7-/8-7-5-7-5-3-2-|
E |-------------/6-5--------------/6-5-3-5-3-1-0-|

(guitar fill over - riff 9a)
E |-------------------------------------------|
B |-------------------------------------------|
G |----------12---------------------12--------|
D |-12h14-14----14-14------12h14-14----14-14--|
A |-------------------------------------------|
E |-------------------------------------------|



Please give me some comments/ thoughts you had about this tab. Enjoy
Tap to rate this tab
 
# A B C D E F G H I J K L M N O P Q R S T U V W X Y Z