Song name
# A B C D E F G H I J K L M N O P Q R S T U V W X Y Z

Megadeth - Breadline tab

Help us improve GuitareTab! Take a short survey!
Okay, here's the other guitar part
for during the solo:

e|-|--------------------------------|
B|-|--------------------------------|
G|-|--------------------------------|
D|-|--------------------------------|
A|-|7---------------------------6-7-|
E|-|5---------------------------4-5-|

e|-|--------------------------------|
B|-|--------------------------------|
G|-|--------------------------------|
D|-|--------------------------------|
A|-(7)------------------------6---2-|
E|-(5)------------------------4---0-|

e|-|--------------------------------|
B|-|--------------------------------|
G|-|--------------------------------|
D|-|--------------------------------|
A|-(2)--------------------------6-7-|
E|-(0)--------------------------4-5-|

e|-|--------------------------------|
B|-|--------------------------------|
G|-|--------------------------------|
D|-|--------------------------------|
A|-(7)--------------------------6-7-|
E|-(5)--------------------------4-5-|

e|-|--------------------------------|
B|-|--------------------------------|
G|-|--------------------------------|
D|-|--------------------------------|
A|-(7)------------------------6---4-|
E|-(5)------------------------4---2-|

e|-|--------------------------------|
B|-|--------------------------------|
G|-|--------------------------------|
D|-|--------------------------------|
A|-(4)--4-----4-4-4/7---7-----7-7-7/|
E|-(2)--2-----2-2-2/5---5-----5-5-5/|
               PM              PM

e|-|--------------------------------|
B|-|--------------------------------|
G|-|----9---9-----9---9---9-9---9---|
D|-|----9---9-----9---9---9-9---9---|
A|-|9---7---7-9---7---7---7-7---7---|
E|-|7-7---7---7-7-------------------|
     PM  PM    PM

And now for the outro Guitar 1 starts
on second measure shown, and plays
Chorus riff, (found in Breadline), 1x
then Riff B (Pre-Chorus) 8x then it's
all over:
e|-|------------------14------12----|
B|-|------------1719b-17b-15b-15b---|
G|-|----------16--------------------|
D|-|-------/18----------------------|
A|-|--------------------------------|
E|-|--------------------------------|

e|-|12--------------11--1414--------|
B|-|15b---------------------------12b
G|-|--------------------------------|
D|-|--------------------------------|
A|-|--------------------------------|
E|-|--------------------------------|
(*) means a ghost note of last fret on that string,
in this case, the 12.
e|-|--------------------------------|
B|-(*)12b---8b12b---------------9-12|
G|-|----------------9-------9-11----|
D|-|--------------------------------|
A|-|--------------------------------|
E|-|--------------------------------|

e|-|--------------9-------11------12|
B|-|12b-----------12b-----14b-----15b
G|-|--------------------------------|
D|-|--------------------------------|
A|-|--------------------------------|
E|-|--------------------------------|

e|-|--------------------------17b17b|
B|-(15)-----------------------------|
G|-|--------------12--12b-----------|
D|-|--------------12--12b-14--------|
A|-|----------------14--------------|
E|-|--------------------------------|

e|-|17b-------17b17b17b-------17b17b|
B|-|--------------------------------|
G|-|--------------------------------|
D|-|--------------------------------|
A|-|--------------------------------|
E|-|--------------------------------|

                         gradual rel.
e|-|17b17b17b17b17b-17b----(17)--(17)
B|-|--------------------------------|
G|-|--------------------------------|
D|-|--------------------------------|
A|-|--------------------------------|
E|-|--------------------------------|

e|-|1512----------------------------|
B|-|-----1512-----------------------|
G|-|-----------1514-12---------12---|
D|-|------------------14-1214----14-|
A|-|--------------------------------|
E|-|--------------------------------|

e|-|--------------------------------|
B|-|12--------12-12-12--------------|
G|-|14b-------14b14b14b-------------|
D|-|--------------------------------|
A|-|--------------------------------|
E|-|--------------------------------|

(at this point, One measure shown will
actully equal one measure were the song
transcribed in sheet music)
e|-|1210--------1210--------1210----|
B|-|------1210--------1210--------12|
G|-|--------------------------------|
D|-|--------------------------------|
A|-|--------------------------------|
E|-|--------------------------------|

e|-|----1210--------1210--------1210|
B|-|10--------1210--------1210------|
G|-|--------------------------------|
D|-|--------------------------------|
A|-|--------------------------------|
E|-|--------------------------------|
        /\
   -these are 12's 10's and 9's in case
   i've confused you
        \/
e|-(10)-----------------------------|
B|-|--1210--------1210--------------|
G|-|--------129---------129---------|
D|-|--------------------------129---|
A|-|--------------------------------|
E|-|--------------------------------|

e|-|--------------------------------|
B|-|--------------------------------|
G|-|--------------------------------|
D|-|--------------------------------|
A|-|1210----------------------------|
E|-|------1210\-7-5---3-0-----------|

e|-|--------------------------------|
B|-|--------------------------------|
G|-|--------------------------12----|
D|-|----------------13---14---------|
A|-|----------12--------------------|
E|-|12---15-------------------------|
    st   st   st    st   st   st
st means staccato picking, (really really fast)

e|-|--------------------------------|
B|-|---------------------12---15----|
G|-|-----12---14----15--------------|
D|-|14------------------------------|
A|-|--------------------------------|
E|-|--------------------------------|
    st   st   st    st   st   st

e|-|121512------121512------121512------121512------
B|-|--------1512--------1512--------1512--------1512
G|-|------------------------------------------------
D|-|------------------------------------------------
A|-|------------------------------------------------
E|-|------------------------------------------------
/\
thes are 15's and 12's, really fast hammer on's and
pull offs. Play this twice, then pick-scrape your way
along the 6th string, (E) until your ready to move on.
Related for Breadline tab