Song name
# A B C D E F G H I J K L M N O P Q R S T U V W X Y Z

Megadeth - Duke Nukem tab

DUKE NUKEM


Megadeth Tabs         

intro:                  2x
e-------------------------
b-------------------------
g-------------------------
d-2-22--2-22---2-22--3-33-
a-2-22--2-22---2-22--3-33-
e-0-00--0-00---0-00--1-11-

e-------------------------------------------
b-------------------------------------------
g-------------------------------------------
d-2-5-2----2-2-4----2-4-5-------------3-3-3-
a-2-5-0----2-0-2----2-2-3----2-0------3-3-3-
e-0-3---00-0-----00-0-----00-----3-0--1-1-1-

Gtr1:
e-----------------------
b-----------------------
g-----------------------
d-----------------------
a-----------------------
e-0-0-0-0-0-0-0-0-0-0-0-

Gtr2:
e--------------------------------------------------------------------------
b--------------------------------------------------------------------------
g--------------------------------------------------------------------------
d-9-9-9-9-9-9-9-9-10-10-10-7-7-7-55-44-55---9-9-9-9-9-9-10-9-7-5-5-2-5-7-4-
a--------------------------------------------------------------------------
e--------------------------------------------------------------------------

e----------------------------------------------------
b-12-12-12-12-12-12-12-12-13-13-13-10-10-10-66-55-66-
g----------------------------------------------------
d----------------------------------------------------
a----------------------------------------------------
e----------------------------------------------------

e-----------------------------------------------
b-12-12-12-12-12-12-12-12-13-12-10-8-8-5-8-10-7-
g-----------------------------------------------
d-----------------------------------------------
a-----------------------------------------------
e-----------------------------------------------

written by: WOHLI5000
Tap to rate this tab
# A B C D E F G H I J K L M N O P Q R S T U V W X Y Z