Guitaretab - guitar tabs
Song name
# A B C D E F G H I J K L M N O P Q R S T U V W X Y Z

Megadeth - A Tout Le Mounde tab

this is a sweet song by megadeth wich happends to be my fav. band
youthanasia-tout le mounde
tune:E flat

---------------------------------------------------------------------------
---------------------------------------------------------------------------
-------2---------2----------------2-------2---------------2---------2------
-----4--------4----4-----------4-------4-----4---------4--------4------4---
-------------------------------------------------0--2--------2-----------2-
--2-------2------------2---0-------0---------------------------------------
                           rpt until dave stops singing
-------------------------------]
-------------------------------]
-----------0------------0------]
--------0------------0---------]
-------------------------------]
--2--3--------3--5---------3--2]

pre-chorus w/ distortion
----------------------------------------------------------------------------
----------------------------------------------------------------------------
------------2--2---4----4--4------------------2--2---4--4----7-7-7-7-7-7----
------------2--2---4----4--4------------------2--2---4--4----7-7-7-7-7-7----
---4----------------------------4---4---------------------------------------
---2--0--2----------------------2---2--0--2---------------------------------
chorus
----------------------------------------------------------------------------
----------------------------------------------------------------------------
----------------------------------------------------------------------------
--------9------------7-----------7-----------5-----------9------14-14-14----
-----10--10---10---9---9---9---7---7---7---7---7------10---10---13-13-13----
---9--------9----9-------9---8-------8---6-------6--9---------9-------------

--------------------]
--------------------]
--------------------]
--12-12-15-15-15-15-]
--11-11-14-14-14-14-]
--------------------]
verse                                            rpt until pre-chorus
---------------------------------------------------------------]
---------------------------------------------------------------]
---------------------------------------------------------------]
---------4----------4--------------4-------4-------------------]
--------------------------4--2--2----2--2-----4--5--5--7--5--4-]
--2--2-------2--2------2----------------------2--3--3--5--3--2-]

here is part of marty's solo i dont know the whole thing

----------------------------------------------------------]
------10--------------------------------------------------]
---11----11--9--9h11p9-------------6----------------4h6p4-]
------------------------11--9p7h9----------------4--------]
--------------------------------------9---5p4h5-----------]
----------------------------------------------------------]
[ Tab from: http://www.guitaretab.com/m/megadeth/22852.html ]
Related for A Tout Le Mounde tab
Advertisement will be closed in 10 seconds