Song name
# A B C D E F G H I J K L M N O P Q R S T U V W X Y Z

Megadeth - Anarchy In The Uk tab

comments:redhurley182@hotmail.com
Dustin Ruther
 The Tablature Explanation:
 ~~~~~~~~~~~~~~~~~~~~~~~~~~
  PM - palm mute
  / - slide up
  \ - slide down
  b - bend to (#) pitch
  r - release bend
  p - pull-off
  ~ - finger vibrato

 Here's The Song Structure:
 ~~~~~~~~~~~~~~~~~~~~~~~~~~
  INTRO RIFF
  VERSE RIFF x5
  PRE-CHORUS RIFF
  CHORUS RIFF
  POST-CHORUS RIFF 1
  VERSE RIFF x3
  PRE-CHORUS RIFF
  CHORUS RIFF
  POST-CHORUS RIFF 2
  SOLO 1
  VERSE RIFF x3
  PRE-CHORUS RIFF
  CHORUS RIFF
  POST-CHORUS RIFF 2
  SOLO 2
  VERSE RIFF x3
  PRE-CHORUS RIFF
  CHORUS RIFF
  POST-CHORUS RIFF 2
  CHORUS RIFF
  POST-CHORUS RIFF 2
  CHORUS RIFF
  POST-CHORUS RIFF 2
  CHORUS RIFF
  POST-CHORUS RIFF 2 x0.75
  OUTRO RIFF

 And Here's The Riffs & Solos:
 ~~~~~~~~~~~~~~~~~~~~~~~~~~~~~
 INTRO RIFF
|----------|----------|----------|----------|
|----------|----------|----------|----------|
|----------|----------|----------|----------|
|----------|----------|----------|------5-5-|
|-5-555555-|-55555555-|-3-333333-|-2222-3-3-|
|-3-333333-|-33333333-|-1-111111-|-0000-----|
    PM....   PM......     PM....   PM..

 VERSE RIFF
|----------|---------------|
|----------|---------------|
|----------|---------5-4---|
|-5-555555-|-5555--5\3-2\5-|
|-3-333333-|-3333--3\---\3-|
|----------|---------------|
    PM....   PM..

 PRE-CHORUS RIFF
|----------|----------|
|----------|----------|
|----------|----------|
|-5-555555-|-55555555-|
|-3-333333-|-33333333-|
|----------|----------|
    PM....   PM......

 CHORUS RIFF
|----------|----------|----------|-----|
|----------|----------|----------|-----|
|----------|----------|----------|-----|
|----------|----------|----------|---5-|
|-55555555-|-555555-5-|-3-333333-|-2-3-|
|-33333333-|-333333-3-|-1-111111-|-0---|
  PM......   PM....       PM....

 POST-CHORUS RIFF 1
|----------|---------------|----------|----------|
|----------|---------------|----------|----------|
|----------|---------5-----|----------|----------|
|-5-555555-|-5555--5\3-4\5-|-5-555555-|----------|
|-3-333333-|-3333--3\--2\3-|-3-333333-|-55555555-|
|----------|---------------|----------|-33333333-|
    PM....   PM..              PM....   PM......

 POST-CHORUS RIFF 2
|----------|---------------|----------|----------|
|----------|---------------|----------|----------|
|----------|---------4-4---|----------|----------|
|-5-555555-|-5555--5\2-2\5-|-55555555-|-55555555-|
|-3-333333-|-3333--3\---\3-|-33333333-|-33333333-|
|----------|---------------|----------|----------|
    PM....   PM..            PM......   PM......

 SOLO 1
|------------|------------------|------------|------------------|
|------------|-10b(12)r10-------|------------|-10b(12)r10-------|
|-/11-14-11~-|------------12~-9-|-/11-14-11~-|------------12~-9-|
|------------|------------------|------------|------------------|
|------------|------------------|------------|------------------|
|------------|------------------|------------|------------------|

|------------|------------------|------------|
|------------|-10b(12)r10-------|------------|
|-/11-14-11~-|------------12~-9-|-/11-14-11~-|
|------------|------------------|------------|
|------------|------------------|------------|
|------------|------------------|------------|

|----------------------|----------------------------------|
|------20p18-----20p18-|-----20p18-----20p18b(20)r18b(20)-|
|-/17b(19)---17b(19)---|-17b(19)---17b(19)----------------|
|----------------------|----------------------------------|
|----------------------|----------------------------------|
|----------------------|----------------------------------|

|-----20------20------20------20--|-----20------20------20b(22)~-|
|-18b(20)-18b(20)-18b(20)-18b(20)-|-18b(20)-18b(20)-18b(20)------|
|---------------------------------|------------------------------|
|---------------------------------|------------------------------|
|---------------------------------|------------------------------|
|---------------------------------|------------------------------|

 SOLO 2
|-----10-10-10-10-10-10-|-10-10-10-10-10-10-10-10-|
|-----10-10-10-10-10-10-|-10-10-10-10-10-10-10-10-|
|-/11-11-11--9--9-11-11-|-12-11-11-11--9--9-11-11-|
|-----------------------|-------------------------|
|-----------------------|-------------------------|
|-----------------------|-------------------------|

|-10-10-10-10-10-10-10-10-|-10-10-10-10-10-10-10-10-|
|-10-10-10-10-10-10-10-10-|-10-10-10-10-10-10-10-10-|
|-11-11-11-11--9--9-11-11-|-12-11-11-11--9--9-11-11-|
|-------------------------|-------------------------|
|-------------------------|-------------------------|
|-------------------------|-------------------------|

|-10-10-10-10-10-10-10-10-|-10-10-10-10-10-10-10-10-|
|-10-10-10-10-10-10-10-10-|-10-10-10-10-10-10-10-10-|
|-11-11-11-11--9--9-11-11-|-12-11-11-11--9--9-11-11-|
|-------------------------|-------------------------|
|-------------------------|-------------------------|
|-------------------------|-------------------------|

|----10-10----10-10-|----10-----10-----10--|
|-8b(10)---8b(10)---|-8b(10)-8b(10)-8b(10)-|
|-------------------|----------------------|
|-------------------|----------------------|
|-------------------|----------------------|
|-------------------|----------------------|

 OUTRO RIFF
|---|-----|-----|--------|
|---|-----|-----|--------|
|---|-----|-----|--------|
|-5-|-(5)-|-(5)-|-(5)-5\-|
|-3-|-(3)-|-(3)-|-(3)-3\-|
|---|-----|-----|--------|
Tap to rate this tab
 
# A B C D E F G H I J K L M N O P Q R S T U V W X Y Z