Guitaretab - guitar tabs
Song name
# A B C D E F G H I J K L M N O P Q R S T U V W X Y Z

Megadeth - Hangar 18 tab

Tabbed by: Johnny Go Go
Email: the_real_black_goat@yahoo.com

Tuning: Standard (EADGBe)


| /  slide up
| \  slide down
| h  hammer-on
| p  pull-off
| ~  vibrato
| +  harmonic
| x  Mute note
| .  Palm Mute

This is pretty much the rhythm of the song. No solos, but this is for people who play 
rhythm, like me. =]

First Riff
e|-1--1--1--1--1--1--1--1--1--1--1--1--1--1--1--1-|
B|-3--3--3--3--3--3--3--3--3--3--3--3--3--3--3--3-|
G|-2--2--2--2--2--2--2--2--2--2--2--2--2--2--2--2-|
D|-0--0--0--0--0--0--0--0--0--0--0--0--0--0--0--0-|
A|------------------------------------------------|
E|------------------------------------------------|

e|-1--1--1--1--1--1--1--1--1--1--1--1--1--1--1--1-|
B|-3--3--3--3--3--3--3--3--3--3--3--3--3--3--3--3-|
G|-3--3--3--3--3--3--3--3--3--3--3--3--3--3--3--3-|
D|-0--0--0--0--0--0--0--0--0--0--0--0--0--0--0--0-|
A|------------------------------------------------|
E|------------------------------------------------|

e|-1--1--1--1--1--1--1--1--1--1--1--1--1--1--1--1-|
B|-3--3--3--3--3--3--3--3--3--3--3--3--3--3--3--3-|
G|-4--4--4--4--4--4--4--4--4--4--4--4--4--4--4--4-|
D|-0--0--0--0--0--0--0--0--0--0--0--0--0--0--0--0-|
A|------------------------------------------------|
E|------------------------------------------------|

e|-5--5--5--5--5--5--5--5--5--5--5--5--5--5--5--5-|
B|-3--3--3--3--3--3--3--3--3--3--3--3--3--3--3--3-|
G|-5--5--5--5--5--5--5--5--5--5--5--5--5--5--5--5-|
D|-0--0--0--0--0--0--0--0--0--0--0--0--0--0--0--0-|
A|------------------------------------------------|
E|------------------------------------------------|

e|-5--5--5--5--5--5--5--5--5--5--5--5--5--5--5--5-|
B|-6--6--6--6--6--6--6--6--6--6--6--6--6--6--6--6-|
G|-7--7--7--7--7--7--7--7--7--7--7--7--7--7--7--7-|
D|------------------------------------------------|
A|------------------------------------------------|
E|------------------------------------------------|

e|-6--6--6--6--6--6--6--6--6--6--6--6--6--6--6--6-|
B|-6--6--6--6--6--6--6--6--6--6--6--6--6--6--6--6-|
G|-7--7--7--7--7--7--7--7--7--7--7--7--7--7--7--7-|
D|------------------------------------------------|
A|------------------------------------------------|
E|------------------------------------------------|

e|-7--7--7--7--7--7--7--7--7--7--7--7--7--7--7--7-|
B|-6--6--6--6--6--6--6--6--6--6--6--6--6--6--6--6-|
G|-7--7--7--7--7--7--7--7--7--7--7--7--7--7--7--7-|
D|------------------------------------------------|
A|------------------------------------------------|
E|------------------------------------------------|

e|-8--8--8--8--8--8--8--8--8--8--8--8--8--8--8--8-|
B|-8--8--8--8--8--8--8--8--8--8--8--8--8--8--8--8-|
G|-9--9--9--9--9--9--9--9--9--9--9--9--9--9--9--9-|
D|------------------------------------------------|
A|------------------------------------------------|
E|------------------------------------------------|

Second Riff (Played Twice)
e|-------------------------------|
B|-------------------------------|
G|-------------------------------|
D|-2--------3--------4--------5--|
A|-0--------1--------2--------3--|
E|-------------------------------|

e|-----------------------------------|
B|-----------------------------------|
G|-----------------------------------|
D|-7----7----8----8----9----9----10--|
A|-5----5----5----5----5----5-----5--|
E|-----------------------------------|

Lead into the next section:
e|--------------------|
B|-10-8---------------|
G|------10-9-7--------|
D|-------------10-9-7-|
A|--------------------|
E|--------------------|

Third Riff
e|-----------------------------------|
B|-----------------------------------|
G|-7-----/10~-------7-----/10~-------|
D|---0-0--------0-0---0-0--------0-0-|
A|-----------------------------------|
E|-----------------------------------|
     . .        . .   . .        . .
e|-----------------------------------|
B|-----------------------------------|
G|-7-----/10~-------9-----/12~-------|
D|---0-0--------0-0---0-0--------0-0-|
A|-----------------------------------|
E|-----------------------------------|
     . .        . .   . .        . .

Fourth Riff
e|---------------------------|
B|---------------------------|
G|-10\-7~--------10\-7~------|
D|----------0-0----------0-0-|
A|---------------------------|
E|---------------------------|
            . .          . .
e|-------------------------------|
B|-------------------------------|
G|-10\-7~--------10-9---9~--(9)\-|
D|----------0-0-------0----------|
A|-------------------------------|
E|-------------------------------|
[ Tab from: http://www.guitaretab.com/m/megadeth/27116.html ]
Fifth Riff (Solo)
e|----------------------------------|
B|----------------------------------|
G|-----2-----2---2------3-----3---3-|
D|-0-0-0-0-0-0-0-0--0-0-0-0-0-0-0-0-|
A|-0-0-0-0-0-0-0-0--1-1-1-1-1-1-1-1-|
E|----------------------------------|
   . .   . .   .    . .   . .   .
e|----------------------------------|
B|----------------------------------|
G|-----4-----4---4------3-----3---3-|
D|-0-0-0-0-0-0-0-0--0-0-0-0-0-0-0-0-|
A|-2-2-2-2-2-2-2-2--1-1-1-1-1-1-1-1-|
E|----------------------------------|
   . .   . .   .    . .   . .   .
e|----------------------------------|
B|----------------------------------|
G|-----2-----2---2------3-----3---3-|
D|-0-0-0-0-0-0-0-0--0-0-0-0-0-0-0-0-|
A|-0-0-0-0-0-0-0-0--1-1-1-1-1-1-1-1-|
E|----------------------------------|
   . .   . .   .    . .   . .   .
e|----------------------------------|
B|----------------------------------|
G|-----4-----4---4------5-----5---5-|
D|-0-0-0-0-0-0-0-0--0-0-0-0-0-0-0-0-|
A|-2-2-2-2-2-2-2-2--3-3-3-3-3-3-3-3-|
E|----------------------------------|
   . .   . .   .    . .   . .   .
e|----------------------------------|
B|----------------------------------|
G|-----2-----2---2------3-----3---3-|
D|-0-0-0-0-0-0-0-0--0-0-0-0-0-0-0-0-|
A|-0-0-0-0-0-0-0-0--1-1-1-1-1-1-1-1-|
E|----------------------------------|
   . .   . .   .    . .   . .   .
e|----------------------------------|
B|----------------------------------|
G|-----4-----4---4------3-----3---3-|
D|-0-0-0-0-0-0-0-0--0-0-0-0-0-0-0-0-|
A|-2-2-2-2-2-2-2-2--1-1-1-1-1-1-1-1-|
E|----------------------------------|
   . .   . .   .    . .   . .   .
e|----------------------------------|
B|----------------------------------|
G|-----2-----2---2------3-----3---3-|
D|-0-0-0-0-0-0-0-0--0-0-0-0-0-0-0-0-|
A|-0-0-0-0-0-0-0-0--1-1-1-1-1-1-1-1-|
E|----------------------------------|
   . .   . .   .    . .   . .   .
e|-----------------|
B|-----------------|
G|-----4-----4---4-|
D|-0-0-0-0-0-0-0-0-|
A|-2-2-2-2-2-2-2-2-|
E|-----------------|
   . .   . .   .

Lead into next riff:
e|-------------------------------------------|
B|-------------------------------------------|
G|-10-9-7----9-7------7------------------7~~-|
D|--------10-----10-8---10-8-7-10-8-7--------|
A|------------------------------------10-----|
E|-------------------------------------------|

Play the Third Riff
Play the Fourth Riff

Fifth Riff with this added at the end
e|----------------------------------|
B|----------------------------------|
G|-----5-----5---5------6-----6---6-|
D|---0-----0----------0-----0-------|
A|-3-----3-----3----4-----4-----4---|
E|----------------------------------|
   . .   . .   .    . .   . .   .

Riff 6 (Solo Rhythm)       x3
e|--------------------------|
B|--------------------------|
G|-7------------------------|
D|-------------------7-8----|
A|---5-5-5--5-8-5--5-5-6--5-|
E|--------------------------|

e|---------------------------|
B|---------------------------|
G|-7-------------------------|
D|-------------------6p5-----|
A|---5-5-5--5-8-5--5-----8p5-|
E|---------------------------|
                           x3
e|--------------------------|
B|--------------------------|
G|-7------------------------|
D|-------------------7-8----|
A|---5-5-5--5-8-5--5-5-6--5-|
E|--------------------------|

e|----------------------------|
B|----------------------------|
G|-7--------------------------|
D|------------6p5-----6p5-----|
A|---5-5-5--5-----8p5-----8p5-|
E|----------------------------|

Seventh Riff
e|---------------------------|
B|---------------------------|
G|---------------------------|
D|-------4-----------------5-|
A|-----------------------5---|
E|-0h1/2---2--2-5-2--2-3-----|
                       . .
e|-----------------------------|
B|-----------------------------|
G|-----------------------------|
D|-------4---------------------|
A|---------------------3p2-----|
E|-0h1/2---2--2-5-2--2-----5p2-|

e|---------------------------|
B|---------------------------|
G|---------------------------|
D|-------4-----------------5-|
A|-----------------------5---|
E|-0h1/2---2--2-5-2--2-3-----|
                       . .
e|------------------------------|
B|------------------------------|
G|--------------5p4-----6p5-----|
D|-------4----------7p4-----8p5-|
A|------------------------------|
E|-0h1/2---2--2-----------------|

Play the Sixth Riff
Play the Seventh Riff

Eighth Riff                   x4
e|-----------------------------|
B|-----------------------------|
G|-----------------------------|
D|-----------------------------|
A|-----------------4/5-4/5-4/5-|
E|-3-2-0-2-3-5-3-2-2/3-2/3-2/3-|
   . . . . . . . .


Play the Seventh Riff
Play the Eighth Riff
Play the Seventh Riff
Play the Eighth Riff
Play the Seventh Riff
Play the Eighth Riff
Play the Seventh Riff
Play the Eighth Riff
Play the Seventh Riff

End
e|--------------------------------------------------|
B|--------------------------------------------------|
G|--------------------------------------------------|
D|--------------------------------------------------|
A|--5-------(5)----------------------4/5-4/5-4/5-4\-|
E|--3-------(3)------3-2-0-2-3-5-3-2-2/3-2/3-2/3-2\-|
                     . . . . . . . .
Related for Hangar 18 tab
Hangar 18 chords by Megadeth