Song name
# A B C D E F G H I J K L M N O P Q R S T U V W X Y Z

Megadeth - Die Die tab

E|-------------------------------------------------------------------------|
B|-------------------------------------------------------------------------|
G|-------------------------------------------------------------------------|
D|-------------------------------------------------------------------------|
A|-------------------------------------------------------------------------|
E|-0-0-3-5-6-0-0-3-5-6-0-0-3-5-6-0-3-5-6-0-0-3-5-6-0-0-3-5-6-0-0-3-5-6-5-3-|

E|-------------------------------------------------------------------------|
B|-------------------------------------------------------------------------|
G|-------------------------------------------------------------------------|
D|-------------------------------------------------------------------------|
A|-0-0-3-5-6-0-0-3-5-6-0-0-3-5-6-0-3-5-6-0-0-3-5-6-0-0-3-5-6-0-0-3-5-6-5-3-|
E|-0-0-3-5-6-0-0-3-5-6-0-0-3-5-6-0-3-5-6-0-0-3-5-6-0-0-3-5-6-0-0-3-5-6-5-3-|

E|-------------------------------------------------------------------------|
B|-------------------------------------------------------------------------|
G|-------------------------------------------------------------------------|
D|-------------------------------------------------------------------------|
A|-0-0-3-5-6-0-0-3-5-6-0-0-3-5-6-0-3-5-6-0-0-3-5-6-0-0-3-5-6-0-0-3-5-6-5-3-|
E|-0-0-3-5-6-0-0-3-5-6-0-0-3-5-6-0-3-5-6-0-0-3-5-6-0-0-3-5-6-0-0-3-5-6-5-3-|

E|-------------|
B|-------------|
G|-------------|
D|-------------|
A|-----7-----7-|
E|-0-0-5-0-0-5-|
Tap to rate this tab
 
# A B C D E F G H I J K L M N O P Q R S T U V W X Y Z